ISO-10303-21;
HEADER;
/* Generated by software containing ST-Developer
 * from STEP Tools, Inc. (www.steptools.com) 
 */

FILE_DESCRIPTION(
/* description */ (''),
/* implementation_level */ '2;1');

FILE_NAME(
/* name */ 'C:\\TEMP\\NR10.stp',
/* time_stamp */ '2021-10-29T11:48:30+01:00',
/* author */ ('Sandfield Engineering'),
/* organization */ ('Sandfield Engineering'),
/* preprocessor_version */ 'ST-DEVELOPER v18.1',
/* originating_system */ 'Autodesk Inventor 2021',
/* authorisation */ '');

FILE_SCHEMA (('AUTOMOTIVE_DESIGN { 1 0 10303 214 3 1 1 }'));
ENDSEC;

DATA;
#10=MECHANICAL_DESIGN_GEOMETRIC_PRESENTATION_REPRESENTATION('',(#165,#166,
#167,#168,#169,#170),#370);
#11=SHAPE_REPRESENTATION_RELATIONSHIP('SRR','None',#377,#12);
#12=ADVANCED_BREP_SHAPE_REPRESENTATION('',(#13),#369);
#13=MANIFOLD_SOLID_BREP('Solid1',#180);
#14=(
BOUNDED_SURFACE()
B_SPLINE_SURFACE(2,2,((#318,#319,#320,#321,#322,#323,#324,#325,#326),(#327,
#328,#329,#330,#331,#332,#333,#334,#335),(#336,#337,#338,#339,#340,#341,
#342,#343,#344)),.UNSPECIFIED.,.F.,.T.,.F.)
B_SPLINE_SURFACE_WITH_KNOTS((3,3),(3,2,2,2,3),(0.0985025429957694,1.57564379989528),
(-3.14159265358979,-1.5707963267949,0.,1.5707963267949,3.14159265358979),
 .UNSPECIFIED.)
GEOMETRIC_REPRESENTATION_ITEM()
RATIONAL_B_SPLINE_SURFACE(((1.,0.707106781186548,1.,0.707106781186548,1.,
0.707106781186548,1.,0.707106781186548,1.),(0.739431611975405,0.522857107051509,
0.739431611975405,0.522857107051509,0.739431611975405,0.522857107051509,
0.739431611975405,0.522857107051509,0.739431611975405),(1.,0.707106781186548,
1.,0.707106781186548,1.,0.707106781186548,1.,0.707106781186548,1.)))
REPRESENTATION_ITEM('')
SURFACE()
);
#15=CONICAL_SURFACE('',#212,12.05,0.0985025429957696);
#16=CONICAL_SURFACE('',#217,2.094,1.02974425867665);
#17=CONICAL_SURFACE('',#220,4.344,0.785398163397448);
#18=FACE_BOUND('',#35,.T.);
#19=FACE_BOUND('',#42,.T.);
#20=PLANE('',#211);
#21=PLANE('',#226);
#22=TOROIDAL_SURFACE('',#204,11.4963065674122,1.);
#23=FACE_OUTER_BOUND('',#32,.T.);
#24=FACE_OUTER_BOUND('',#33,.T.);
#25=FACE_OUTER_BOUND('',#34,.T.);
#26=FACE_OUTER_BOUND('',#36,.T.);
#27=FACE_OUTER_BOUND('',#37,.T.);
#28=FACE_OUTER_BOUND('',#38,.T.);
#29=FACE_OUTER_BOUND('',#39,.T.);
#30=FACE_OUTER_BOUND('',#40,.T.);
#31=FACE_OUTER_BOUND('',#41,.T.);
#32=EDGE_LOOP('',(#115,#116,#117,#118,#119));
#33=EDGE_LOOP('',(#120,#121,#122,#123,#124,#125,#126));
#34=EDGE_LOOP('',(#127,#128));
#35=EDGE_LOOP('',(#129));
#36=EDGE_LOOP('',(#130,#131,#132,#133,#134,#135,#136,#137));
#37=EDGE_LOOP('',(#138,#139,#140,#141,#142));
#38=EDGE_LOOP('',(#143,#144,#145,#146));
#39=EDGE_LOOP('',(#147,#148,#149,#150,#151,#152));
#40=EDGE_LOOP('',(#153,#154,#155,#156,#157,#158));
#41=EDGE_LOOP('',(#159,#160));
#42=EDGE_LOOP('',(#161,#162));
#43=LINE('',#293,#48);
#44=LINE('',#316,#49);
#45=LINE('',#352,#50);
#46=LINE('',#360,#51);
#47=LINE('',#365,#52);
#48=VECTOR('',#233,6.5);
#49=VECTOR('',#260,12.05);
#50=VECTOR('',#269,2.094);
#51=VECTOR('',#278,4.344);
#52=VECTOR('',#285,4.188);
#53=CIRCLE('',#201,6.5);
#54=CIRCLE('',#202,6.5);
#55=CIRCLE('',#203,6.5);
#56=CIRCLE('',#205,12.4914591132962);
#57=CIRCLE('',#206,12.4914591132962);
#58=CIRCLE('',#207,1.);
#59=CIRCLE('',#208,11.4963065674122);
#60=CIRCLE('',#209,11.4963065674122);
#61=CIRCLE('',#210,12.4914591132962);
#62=CIRCLE('',#213,11.5);
#63=CIRCLE('',#214,11.5);
#64=CIRCLE('',#215,11.5);
#65=CIRCLE('',#216,11.5);
#66=CIRCLE('',#218,4.188);
#67=CIRCLE('',#219,4.188);
#68=CIRCLE('',#221,4.5);
#69=CIRCLE('',#222,4.5);
#70=CIRCLE('',#223,4.188);
#71=CIRCLE('',#224,4.188);
#72=VERTEX_POINT('',#290);
#73=VERTEX_POINT('',#292);
#74=VERTEX_POINT('',#294);
#75=VERTEX_POINT('',#298);
#76=VERTEX_POINT('',#299);
#77=VERTEX_POINT('',#301);
#78=VERTEX_POINT('',#303);
#79=VERTEX_POINT('',#305);
#80=VERTEX_POINT('',#311);
#81=VERTEX_POINT('',#312);
#82=VERTEX_POINT('',#314);
#83=VERTEX_POINT('',#345);
#84=VERTEX_POINT('',#348);
#85=VERTEX_POINT('',#349);
#86=VERTEX_POINT('',#351);
#87=VERTEX_POINT('',#355);
#88=VERTEX_POINT('',#356);
#89=VERTEX_POINT('',#359);
#90=VERTEX_POINT('',#361);
#91=EDGE_CURVE('',#72,#72,#53,.T.);
#92=EDGE_CURVE('',#72,#73,#43,.T.);
#93=EDGE_CURVE('',#74,#73,#54,.T.);
#94=EDGE_CURVE('',#73,#74,#55,.T.);
#95=EDGE_CURVE('',#75,#76,#56,.T.);
#96=EDGE_CURVE('',#76,#77,#57,.T.);
#97=EDGE_CURVE('',#77,#78,#58,.T.);
#98=EDGE_CURVE('',#78,#79,#59,.T.);
#99=EDGE_CURVE('',#79,#78,#60,.T.);
#100=EDGE_CURVE('',#77,#75,#61,.T.);
#101=EDGE_CURVE('',#80,#81,#62,.T.);
#102=EDGE_CURVE('',#82,#80,#63,.T.);
#103=EDGE_CURVE('',#82,#76,#44,.T.);
#104=EDGE_CURVE('',#81,#82,#64,.T.);
#105=EDGE_CURVE('',#83,#81,#65,.T.);
#106=EDGE_CURVE('',#84,#85,#66,.T.);
#107=EDGE_CURVE('',#85,#86,#45,.T.);
#108=EDGE_CURVE('',#85,#84,#67,.T.);
#109=EDGE_CURVE('',#87,#88,#68,.T.);
#110=EDGE_CURVE('',#88,#87,#69,.T.);
#111=EDGE_CURVE('',#88,#89,#46,.T.);
#112=EDGE_CURVE('',#90,#89,#70,.T.);
#113=EDGE_CURVE('',#89,#90,#71,.T.);
#114=EDGE_CURVE('',#89,#85,#47,.T.);
#115=ORIENTED_EDGE('',*,*,#91,.F.);
#116=ORIENTED_EDGE('',*,*,#92,.T.);
#117=ORIENTED_EDGE('',*,*,#93,.F.);
#118=ORIENTED_EDGE('',*,*,#94,.F.);
#119=ORIENTED_EDGE('',*,*,#92,.F.);
#120=ORIENTED_EDGE('',*,*,#95,.T.);
#121=ORIENTED_EDGE('',*,*,#96,.T.);
#122=ORIENTED_EDGE('',*,*,#97,.T.);
#123=ORIENTED_EDGE('',*,*,#98,.T.);
#124=ORIENTED_EDGE('',*,*,#99,.T.);
#125=ORIENTED_EDGE('',*,*,#97,.F.);
#126=ORIENTED_EDGE('',*,*,#100,.T.);
#127=ORIENTED_EDGE('',*,*,#99,.F.);
#128=ORIENTED_EDGE('',*,*,#98,.F.);
#129=ORIENTED_EDGE('',*,*,#91,.T.);
#130=ORIENTED_EDGE('',*,*,#101,.F.);
#131=ORIENTED_EDGE('',*,*,#102,.F.);
#132=ORIENTED_EDGE('',*,*,#103,.T.);
#133=ORIENTED_EDGE('',*,*,#95,.F.);
#134=ORIENTED_EDGE('',*,*,#100,.F.);
#135=ORIENTED_EDGE('',*,*,#96,.F.);
#136=ORIENTED_EDGE('',*,*,#103,.F.);
#137=ORIENTED_EDGE('',*,*,#104,.F.);
#138=ORIENTED_EDGE('',*,*,#105,.T.);
#139=ORIENTED_EDGE('',*,*,#104,.T.);
#140=ORIENTED_EDGE('',*,*,#102,.T.);
#141=ORIENTED_EDGE('',*,*,#101,.T.);
#142=ORIENTED_EDGE('',*,*,#105,.F.);
#143=ORIENTED_EDGE('',*,*,#106,.T.);
#144=ORIENTED_EDGE('',*,*,#107,.T.);
#145=ORIENTED_EDGE('',*,*,#107,.F.);
#146=ORIENTED_EDGE('',*,*,#108,.T.);
#147=ORIENTED_EDGE('',*,*,#109,.F.);
#148=ORIENTED_EDGE('',*,*,#110,.F.);
#149=ORIENTED_EDGE('',*,*,#111,.T.);
#150=ORIENTED_EDGE('',*,*,#112,.F.);
#151=ORIENTED_EDGE('',*,*,#113,.F.);
#152=ORIENTED_EDGE('',*,*,#111,.F.);
#153=ORIENTED_EDGE('',*,*,#112,.T.);
#154=ORIENTED_EDGE('',*,*,#114,.T.);
#155=ORIENTED_EDGE('',*,*,#106,.F.);
#156=ORIENTED_EDGE('',*,*,#108,.F.);
#157=ORIENTED_EDGE('',*,*,#114,.F.);
#158=ORIENTED_EDGE('',*,*,#113,.T.);
#159=ORIENTED_EDGE('',*,*,#93,.T.);
#160=ORIENTED_EDGE('',*,*,#94,.T.);
#161=ORIENTED_EDGE('',*,*,#109,.T.);
#162=ORIENTED_EDGE('',*,*,#110,.T.);
#163=CYLINDRICAL_SURFACE('',#200,6.5);
#164=CYLINDRICAL_SURFACE('',#225,4.188);
#165=STYLED_ITEM('',(#387),#171);
#166=STYLED_ITEM('',(#387),#172);
#167=STYLED_ITEM('',(#387),#173);
#168=STYLED_ITEM('',(#387),#174);
#169=STYLED_ITEM('',(#387),#175);
#170=STYLED_ITEM('',(#386),#13);
#171=ADVANCED_FACE('',(#23),#163,.F.);
#172=ADVANCED_FACE('',(#24),#22,.T.);
#173=ADVANCED_FACE('',(#25,#18),#20,.T.);
#174=ADVANCED_FACE('',(#26),#15,.T.);
#175=ADVANCED_FACE('',(#27),#14,.F.);
#176=ADVANCED_FACE('',(#28),#16,.F.);
#177=ADVANCED_FACE('',(#29),#17,.F.);
#178=ADVANCED_FACE('',(#30),#164,.F.);
#179=ADVANCED_FACE('',(#31,#19),#21,.T.);
#180=CLOSED_SHELL('',(#171,#172,#173,#174,#175,#176,#177,#178,#179));
#181=DERIVED_UNIT_ELEMENT(#183,1.);
#182=DERIVED_UNIT_ELEMENT(#372,3.);
#183=(
MASS_UNIT()
NAMED_UNIT(*)
SI_UNIT($,.GRAM.)
);
#184=DERIVED_UNIT((#181,#182));
#185=MEASURE_REPRESENTATION_ITEM('density measure',
POSITIVE_RATIO_MEASURE(1.),#184);
#186=PROPERTY_DEFINITION_REPRESENTATION(#191,#188);
#187=PROPERTY_DEFINITION_REPRESENTATION(#192,#189);
#188=REPRESENTATION('material name',(#190),#369);
#189=REPRESENTATION('density',(#185),#369);
#190=DESCRIPTIVE_REPRESENTATION_ITEM('Generic','Generic');
#191=PROPERTY_DEFINITION('material property','material name',#379);
#192=PROPERTY_DEFINITION('material property','density of part',#379);
#193=DATE_TIME_ROLE('creation_date');
#194=APPLIED_DATE_AND_TIME_ASSIGNMENT(#195,#193,(#379));
#195=DATE_AND_TIME(#196,#197);
#196=CALENDAR_DATE(2021,29,10);
#197=LOCAL_TIME(0,0,0.,#198);
#198=COORDINATED_UNIVERSAL_TIME_OFFSET(0,0,.BEHIND.);
#199=AXIS2_PLACEMENT_3D('placement',#288,#227,#228);
#200=AXIS2_PLACEMENT_3D('',#289,#229,#230);
#201=AXIS2_PLACEMENT_3D('',#291,#231,#232);
#202=AXIS2_PLACEMENT_3D('',#295,#234,#235);
#203=AXIS2_PLACEMENT_3D('',#296,#236,#237);
#204=AXIS2_PLACEMENT_3D('',#297,#238,#239);
#205=AXIS2_PLACEMENT_3D('',#300,#240,#241);
#206=AXIS2_PLACEMENT_3D('',#302,#242,#243);
#207=AXIS2_PLACEMENT_3D('',#304,#244,#245);
#208=AXIS2_PLACEMENT_3D('',#306,#246,#247);
#209=AXIS2_PLACEMENT_3D('',#307,#248,#249);
#210=AXIS2_PLACEMENT_3D('',#308,#250,#251);
#211=AXIS2_PLACEMENT_3D('',#309,#252,#253);
#212=AXIS2_PLACEMENT_3D('',#310,#254,#255);
#213=AXIS2_PLACEMENT_3D('',#313,#256,#257);
#214=AXIS2_PLACEMENT_3D('',#315,#258,#259);
#215=AXIS2_PLACEMENT_3D('',#317,#261,#262);
#216=AXIS2_PLACEMENT_3D('',#346,#263,#264);
#217=AXIS2_PLACEMENT_3D('',#347,#265,#266);
#218=AXIS2_PLACEMENT_3D('',#350,#267,#268);
#219=AXIS2_PLACEMENT_3D('',#353,#270,#271);
#220=AXIS2_PLACEMENT_3D('',#354,#272,#273);
#221=AXIS2_PLACEMENT_3D('',#357,#274,#275);
#222=AXIS2_PLACEMENT_3D('',#358,#276,#277);
#223=AXIS2_PLACEMENT_3D('',#362,#279,#280);
#224=AXIS2_PLACEMENT_3D('',#363,#281,#282);
#225=AXIS2_PLACEMENT_3D('',#364,#283,#284);
#226=AXIS2_PLACEMENT_3D('',#366,#286,#287);
#227=DIRECTION('axis',(0.,0.,1.));
#228=DIRECTION('refdir',(1.,0.,0.));
#229=DIRECTION('center_axis',(1.488248085055E-16,1.,-2.33487026463975E-17));
#230=DIRECTION('ref_axis',(0.0527905007845543,1.54596092635859E-17,0.998605609350817));
#231=DIRECTION('center_axis',(1.50471392932683E-16,1.,7.79872768324993E-18));
#232=DIRECTION('ref_axis',(0.0527905007845543,1.54596092635859E-17,0.998605609350817));
#233=DIRECTION('',(1.488248085055E-16,1.,-2.33487026463975E-17));
#234=DIRECTION('center_axis',(0.,-1.,0.));
#235=DIRECTION('ref_axis',(1.,0.,0.));
#236=DIRECTION('center_axis',(0.,-1.,0.));
#237=DIRECTION('ref_axis',(1.,0.,0.));
#238=DIRECTION('center_axis',(1.50471392932683E-16,1.,7.79872768324993E-18));
#239=DIRECTION('ref_axis',(0.998605609350817,-1.51034958343984E-16,-0.0527905007845544));
#240=DIRECTION('center_axis',(-1.60168530335017E-16,-1.,-1.91233543809301E-16));
#241=DIRECTION('ref_axis',(0.0527905007845544,-1.99422266470315E-16,0.998605609350817));
#242=DIRECTION('center_axis',(-1.60168530335017E-16,-1.,-1.91233543809301E-16));
#243=DIRECTION('ref_axis',(0.0527905007845544,-1.99422266470315E-16,0.998605609350817));
#244=DIRECTION('center_axis',(0.0527905007845545,-1.57313133969587E-17,
0.998605609350817));
#245=DIRECTION('ref_axis',(-0.998605609350817,1.4992440717969E-16,0.0527905007845545));
#246=DIRECTION('center_axis',(1.50471392932683E-16,1.,7.79872768324993E-18));
#247=DIRECTION('ref_axis',(0.0527905007845542,-1.57313133969587E-17,0.998605609350817));
#248=DIRECTION('center_axis',(1.50471392932683E-16,1.,7.79872768324993E-18));
#249=DIRECTION('ref_axis',(0.0527905007845542,-1.57313133969587E-17,0.998605609350817));
#250=DIRECTION('center_axis',(-1.60168530335017E-16,-1.,-1.91233543809301E-16));
#251=DIRECTION('ref_axis',(0.0527905007845544,-1.99422266470315E-16,0.998605609350817));
#252=DIRECTION('center_axis',(-1.50471392932683E-16,-1.,-7.79872768324993E-18));
#253=DIRECTION('ref_axis',(-0.998605609350817,1.49849878289527E-16,0.0527905007845543));
#254=DIRECTION('center_axis',(-1.50471392932683E-16,-1.,-7.79872768324993E-18));
#255=DIRECTION('ref_axis',(-0.0527905007845543,1.53727819943543E-17,-0.998605609350817));
#256=DIRECTION('center_axis',(1.50471392932683E-16,1.,7.79872768324993E-18));
#257=DIRECTION('ref_axis',(-0.0527905007845544,1.53727819943543E-17,-0.998605609350817));
#258=DIRECTION('center_axis',(1.50471392932683E-16,1.,7.79872768324993E-18));
#259=DIRECTION('ref_axis',(-0.0527905007845544,1.53727819943543E-17,-0.998605609350817));
#260=DIRECTION('',(0.00519159360336225,-0.995152545883911,0.098206200296254));
#261=DIRECTION('center_axis',(1.50471392932683E-16,1.,7.79872768324993E-18));
#262=DIRECTION('ref_axis',(-0.0527905007845544,1.53727819943543E-17,-0.998605609350817));
#263=DIRECTION('center_axis',(0.0527905007845545,-1.57313133969587E-17,
0.998605609350817));
#264=DIRECTION('ref_axis',(-0.998605609350817,1.92150822855043E-16,0.0527905007845545));
#265=DIRECTION('center_axis',(0.,-1.,0.));
#266=DIRECTION('ref_axis',(1.,0.,0.));
#267=DIRECTION('center_axis',(0.,-1.,0.));
#268=DIRECTION('ref_axis',(1.,0.,0.));
#269=DIRECTION('',(0.857167300702112,0.515038074910054,1.04972719113862E-16));
#270=DIRECTION('center_axis',(0.,-1.,0.));
#271=DIRECTION('ref_axis',(1.,0.,0.));
#272=DIRECTION('center_axis',(0.,-1.,0.));
#273=DIRECTION('ref_axis',(1.,0.,0.));
#274=DIRECTION('center_axis',(0.,1.,0.));
#275=DIRECTION('ref_axis',(1.,0.,0.));
#276=DIRECTION('center_axis',(0.,1.,0.));
#277=DIRECTION('ref_axis',(1.,0.,0.));
#278=DIRECTION('',(0.707106781186547,0.707106781186548,8.65956056235493E-17));
#279=DIRECTION('center_axis',(0.,-1.,0.));
#280=DIRECTION('ref_axis',(1.,0.,0.));
#281=DIRECTION('center_axis',(0.,-1.,0.));
#282=DIRECTION('ref_axis',(1.,0.,0.));
#283=DIRECTION('center_axis',(0.,-1.,0.));
#284=DIRECTION('ref_axis',(1.,0.,0.));
#285=DIRECTION('',(0.,1.,0.));
#286=DIRECTION('center_axis',(0.,-1.,0.));
#287=DIRECTION('ref_axis',(0.,0.,-1.));
#288=CARTESIAN_POINT('',(0.,0.,0.));
#289=CARTESIAN_POINT('Origin',(-6.80188286721846E-16,-0.499999999999985,
-1.14474174408137E-14));
#290=CARTESIAN_POINT('',(-0.343138255099603,-0.499999999999985,-6.49093646078032));
#291=CARTESIAN_POINT('Origin',(-6.80188286721846E-16,-0.499999999999985,
-1.14474174408137E-14));
#292=CARTESIAN_POINT('',(-0.343138255099605,9.71445146547012E-16,-6.49093646078032));
#293=CARTESIAN_POINT('',(-0.343138255099605,-0.499999999999985,-6.49093646078032));
#294=CARTESIAN_POINT('',(6.5,0.,0.));
#295=CARTESIAN_POINT('Origin',(0.,0.,0.));
#296=CARTESIAN_POINT('Origin',(0.,0.,0.));
#297=CARTESIAN_POINT('Origin',(-5.29716893789163E-16,0.500000000000016,
-1.14396187131304E-14));
#298=CARTESIAN_POINT('',(-0.659430382120687,0.598343329315081,-12.4740411395139));
#299=CARTESIAN_POINT('',(0.65943038212069,0.598343329315073,12.4740411395139));
#300=CARTESIAN_POINT('Origin',(9.90649988074185E-16,0.598343329315076,-1.19359553438611E-14));
#301=CARTESIAN_POINT('',(-12.4740411395139,0.598343329315078,0.659430382120679));
#302=CARTESIAN_POINT('Origin',(9.90649988074185E-16,0.598343329315076,-1.19359553438611E-14));
#303=CARTESIAN_POINT('',(-11.4802762250345,-0.499999999999983,0.606895780866443));
#304=CARTESIAN_POINT('Origin',(-11.4802762250345,0.500000000000018,0.606895780866443));
#305=CARTESIAN_POINT('',(-0.606895780866454,-0.49999999999998,-11.4802762250345));
#306=CARTESIAN_POINT('Origin',(-6.80188286721846E-16,-0.499999999999985,
-1.14474174408137E-14));
#307=CARTESIAN_POINT('Origin',(-6.80188286721846E-16,-0.499999999999985,
-1.14474174408137E-14));
#308=CARTESIAN_POINT('Origin',(9.90649988074185E-16,0.598343329315076,-1.19359553438611E-14));
#309=CARTESIAN_POINT('Origin',(-0.332580154942693,-0.499999999999985,-6.29121533891016));
#310=CARTESIAN_POINT('Origin',(1.57266525327102E-16,5.06554170016627,-1.14040132966843E-14));
#311=CARTESIAN_POINT('',(-0.607090759022374,10.6310834003325,-11.4839645075344));
#312=CARTESIAN_POINT('',(-11.4839645075344,10.6310834003325,0.607090759022365));
#313=CARTESIAN_POINT('Origin',(9.94721337376049E-16,10.6310834003325,-1.13606091525549E-14));
#314=CARTESIAN_POINT('',(0.607090759022377,10.6310834003325,11.4839645075344));
#315=CARTESIAN_POINT('Origin',(9.94721337376049E-16,10.6310834003325,-1.13606091525549E-14));
#316=CARTESIAN_POINT('',(0.636125534453881,5.06554170016627,12.0331975926773));
#317=CARTESIAN_POINT('Origin',(9.94721337376049E-16,10.6310834003325,-1.13606091525549E-14));
#318=CARTESIAN_POINT('Ctrl Pts',(-11.4839645075344,10.6310834003325,0.607090759022364));
#319=CARTESIAN_POINT('Ctrl Pts',(-10.876873748512,10.6310834003325,12.0910552665568));
#320=CARTESIAN_POINT('Ctrl Pts',(0.607090759022376,10.6310834003325,11.4839645075344));
#321=CARTESIAN_POINT('Ctrl Pts',(12.0910552665568,10.6310834003325,10.876873748512));
#322=CARTESIAN_POINT('Ctrl Pts',(11.4839645075344,10.6310834003325,-0.607090759022386));
#323=CARTESIAN_POINT('Ctrl Pts',(10.876873748512,10.6310834003325,-12.0910552665568));
#324=CARTESIAN_POINT('Ctrl Pts',(-0.607090759022374,10.6310834003325,-11.4839645075344));
#325=CARTESIAN_POINT('Ctrl Pts',(-12.0910552665568,10.6310834003325,-10.876873748512));
#326=CARTESIAN_POINT('Ctrl Pts',(-11.4839645075344,10.6310834003325,0.607090759022364));
#327=CARTESIAN_POINT('Ctrl Pts',(-10.455703713051,21.0507549116614,0.552732560180292));
#328=CARTESIAN_POINT('Ctrl Pts',(-9.90297115287073,21.0507549116614,11.0084362732313));
#329=CARTESIAN_POINT('Ctrl Pts',(0.552732560180306,21.0507549116613,10.455703713051));
#330=CARTESIAN_POINT('Ctrl Pts',(11.0084362732313,21.0507549116613,9.90297115287072));
#331=CARTESIAN_POINT('Ctrl Pts',(10.455703713051,21.0507549116613,-0.552732560180314));
#332=CARTESIAN_POINT('Ctrl Pts',(9.90297115287073,21.0507549116613,-11.0084362732313));
#333=CARTESIAN_POINT('Ctrl Pts',(-0.5527325601803,21.0507549116613,-10.455703713051));
#334=CARTESIAN_POINT('Ctrl Pts',(-11.0084362732313,21.0507549116614,-9.90297115287074));
#335=CARTESIAN_POINT('Ctrl Pts',(-10.455703713051,21.0507549116614,0.552732560180292));
#336=CARTESIAN_POINT('Ctrl Pts',(2.36077276069511E-15,21.,-1.1265615069895E-14));
#337=CARTESIAN_POINT('Ctrl Pts',(2.37096648299153E-15,21.,-1.1071233095531E-14));
#338=CARTESIAN_POINT('Ctrl Pts',(2.5653484573556E-15,21.,-1.10814268178274E-14));
#339=CARTESIAN_POINT('Ctrl Pts',(2.75973043171966E-15,21.,-1.10916205401238E-14));
#340=CARTESIAN_POINT('Ctrl Pts',(2.74953670942324E-15,21.,-1.12860025144879E-14));
#341=CARTESIAN_POINT('Ctrl Pts',(2.73934298712682E-15,21.,-1.14803844888519E-14));
#342=CARTESIAN_POINT('Ctrl Pts',(2.54496101276276E-15,21.,-1.14701907665555E-14));
#343=CARTESIAN_POINT('Ctrl Pts',(2.3505790383987E-15,21.,-1.14599970442591E-14));
#344=CARTESIAN_POINT('Ctrl Pts',(2.36077276069511E-15,21.,-1.1265615069895E-14));
#345=CARTESIAN_POINT('',(2.55494666133083E-15,21.,-1.12797447956238E-14));
#346=CARTESIAN_POINT('Origin',(-0.055667991021064,9.50013511320933,0.0029428445986511));
#347=CARTESIAN_POINT('Origin',(0.,12.7582021362437,0.));
#348=CARTESIAN_POINT('',(4.188,11.5,0.));
#349=CARTESIAN_POINT('',(-4.188,11.5,-5.12882079482912E-16));
#350=CARTESIAN_POINT('Origin',(0.,11.5,0.));
#351=CARTESIAN_POINT('',(0.,14.0164042724874,0.));
#352=CARTESIAN_POINT('',(-2.094,12.7582021362437,-2.56441039741456E-16));
#353=CARTESIAN_POINT('Origin',(0.,11.5,0.));
#354=CARTESIAN_POINT('Origin',(0.,0.156,0.));
#355=CARTESIAN_POINT('',(4.5,0.,0.));
#356=CARTESIAN_POINT('',(-4.5,-5.72458747072346E-16,-5.51091059616309E-16));
#357=CARTESIAN_POINT('Origin',(0.,0.,0.));
#358=CARTESIAN_POINT('Origin',(0.,0.,0.));
#359=CARTESIAN_POINT('',(-4.188,0.312,-5.12882079482912E-16));
#360=CARTESIAN_POINT('',(-4.344,0.156,-5.3198656954961E-16));
#361=CARTESIAN_POINT('',(4.188,0.312,0.));
#362=CARTESIAN_POINT('Origin',(0.,0.312,0.));
#363=CARTESIAN_POINT('Origin',(0.,0.312,0.));
#364=CARTESIAN_POINT('Origin',(0.,5.75,0.));
#365=CARTESIAN_POINT('',(-4.188,5.75,-5.12882079482912E-16));
#366=CARTESIAN_POINT('Origin',(3.25,0.,0.));
#367=UNCERTAINTY_MEASURE_WITH_UNIT(LENGTH_MEASURE(0.01),#371,
'DISTANCE_ACCURACY_VALUE',
'Maximum model space distance between geometric entities at asserted c
onnectivities');
#368=UNCERTAINTY_MEASURE_WITH_UNIT(LENGTH_MEASURE(0.01),#371,
'DISTANCE_ACCURACY_VALUE',
'Maximum model space distance between geometric entities at asserted c
onnectivities');
#369=(
GEOMETRIC_REPRESENTATION_CONTEXT(3)
GLOBAL_UNCERTAINTY_ASSIGNED_CONTEXT((#367))
GLOBAL_UNIT_ASSIGNED_CONTEXT((#371,#373,#374))
REPRESENTATION_CONTEXT('','3D')
);
#370=(
GEOMETRIC_REPRESENTATION_CONTEXT(3)
GLOBAL_UNCERTAINTY_ASSIGNED_CONTEXT((#368))
GLOBAL_UNIT_ASSIGNED_CONTEXT((#371,#373,#374))
REPRESENTATION_CONTEXT('','3D')
);
#371=(
LENGTH_UNIT()
NAMED_UNIT(*)
SI_UNIT(.MILLI.,.METRE.)
);
#372=(
LENGTH_UNIT()
NAMED_UNIT(*)
SI_UNIT(.CENTI.,.METRE.)
);
#373=(
NAMED_UNIT(*)
PLANE_ANGLE_UNIT()
SI_UNIT($,.RADIAN.)
);
#374=(
NAMED_UNIT(*)
SI_UNIT($,.STERADIAN.)
SOLID_ANGLE_UNIT()
);
#375=SHAPE_DEFINITION_REPRESENTATION(#376,#377);
#376=PRODUCT_DEFINITION_SHAPE('',$,#379);
#377=SHAPE_REPRESENTATION('',(#199),#369);
#378=PRODUCT_DEFINITION_CONTEXT('part definition',#383,'design');
#379=PRODUCT_DEFINITION('NR10','NR10',#380,#378);
#380=PRODUCT_DEFINITION_FORMATION('',$,#385);
#381=PRODUCT_RELATED_PRODUCT_CATEGORY('NR10','NR10',(#385));
#382=APPLICATION_PROTOCOL_DEFINITION('international standard',
'automotive_design',2009,#383);
#383=APPLICATION_CONTEXT(
'Core Data for Automotive Mechanical Design Process');
#384=PRODUCT_CONTEXT('part definition',#383,'mechanical');
#385=PRODUCT('NR10','NR10',$,(#384));
#386=PRESENTATION_STYLE_ASSIGNMENT((#388));
#387=PRESENTATION_STYLE_ASSIGNMENT((#389));
#388=SURFACE_STYLE_USAGE(.BOTH.,#392);
#389=SURFACE_STYLE_USAGE(.BOTH.,#393);
#390=SURFACE_STYLE_RENDERING_WITH_PROPERTIES($,#400,(#391));
#391=SURFACE_STYLE_TRANSPARENT(0.);
#392=SURFACE_SIDE_STYLE('',(#394,#390));
#393=SURFACE_SIDE_STYLE('',(#395));
#394=SURFACE_STYLE_FILL_AREA(#396);
#395=SURFACE_STYLE_FILL_AREA(#397);
#396=FILL_AREA_STYLE('',(#398));
#397=FILL_AREA_STYLE('',(#399));
#398=FILL_AREA_STYLE_COLOUR('',#400);
#399=FILL_AREA_STYLE_COLOUR('',#401);
#400=COLOUR_RGB('',0.749019607843137,0.749019607843137,0.749019607843137);
#401=COLOUR_RGB('',0.113725490196078,0.113725490196078,0.113725490196078);
ENDSEC;
END-ISO-10303-21;
