ISO-10303-21;
HEADER;
/* Generated by software containing ST-Developer
 * from STEP Tools, Inc. (www.steptools.com) 
 */

FILE_DESCRIPTION(
/* description */ (''),
/* implementation_level */ '2;1');

FILE_NAME(
/* name */ 'C:\\TEMP\\NM5 Simplified.stp',
/* time_stamp */ '2021-10-14T15:44:39+01:00',
/* author */ ('Sandfield Engineering'),
/* organization */ ('Sandfield Engineering'),
/* preprocessor_version */ 'ST-DEVELOPER v18.1',
/* originating_system */ 'Autodesk Inventor 2021',
/* authorisation */ '');

FILE_SCHEMA (('AUTOMOTIVE_DESIGN { 1 0 10303 214 3 1 1 }'));
ENDSEC;

DATA;
#10=MECHANICAL_DESIGN_GEOMETRIC_PRESENTATION_REPRESENTATION('',(#99,#100,
#101,#102,#103,#104,#105),#218);
#11=SHAPE_REPRESENTATION_RELATIONSHIP('SRR','None',#225,#12);
#12=ADVANCED_BREP_SHAPE_REPRESENTATION('',(#13),#217);
#13=MANIFOLD_SOLID_BREP('Solid1',#112);
#14=FACE_BOUND('',#31,.T.);
#15=PLANE('',#146);
#16=PLANE('',#147);
#17=SPHERICAL_SURFACE('',#141,12.75);
#18=CONICAL_SURFACE('',#138,2.1,0.785398163397442);
#19=CONICAL_SURFACE('',#143,5.99999999999997,0.146012257711273);
#20=FACE_OUTER_BOUND('',#26,.T.);
#21=FACE_OUTER_BOUND('',#27,.T.);
#22=FACE_OUTER_BOUND('',#28,.T.);
#23=FACE_OUTER_BOUND('',#29,.T.);
#24=FACE_OUTER_BOUND('',#30,.T.);
#25=FACE_OUTER_BOUND('',#32,.T.);
#26=EDGE_LOOP('',(#72,#73,#74,#75,#76,#77,#78));
#27=EDGE_LOOP('',(#79,#80,#81,#82,#83,#84,#85));
#28=EDGE_LOOP('',(#86));
#29=EDGE_LOOP('',(#87,#88,#89,#90,#91));
#30=EDGE_LOOP('',(#92,#93));
#31=EDGE_LOOP('',(#94,#95));
#32=EDGE_LOOP('',(#96,#97));
#33=LINE('',#191,#36);
#34=LINE('',#200,#37);
#35=LINE('',#209,#38);
#36=VECTOR('',#154,2.5);
#37=VECTOR('',#165,2.1);
#38=VECTOR('',#176,5.99999999999997);
#39=CIRCLE('',#133,2.5);
#40=CIRCLE('',#134,2.5);
#41=CIRCLE('',#135,2.5);
#42=CIRCLE('',#136,2.5);
#43=CIRCLE('',#137,2.5);
#44=CIRCLE('',#139,3.);
#45=CIRCLE('',#140,3.);
#46=CIRCLE('',#142,5.99999999999997);
#47=CIRCLE('',#144,4.75);
#48=CIRCLE('',#145,4.75);
#49=VERTEX_POINT('',#187);
#50=VERTEX_POINT('',#188);
#51=VERTEX_POINT('',#190);
#52=VERTEX_POINT('',#192);
#53=VERTEX_POINT('',#194);
#54=VERTEX_POINT('',#199);
#55=VERTEX_POINT('',#201);
#56=VERTEX_POINT('',#205);
#57=VERTEX_POINT('',#208);
#58=VERTEX_POINT('',#210);
#59=EDGE_CURVE('',#49,#50,#39,.T.);
#60=EDGE_CURVE('',#50,#51,#33,.T.);
#61=EDGE_CURVE('',#52,#51,#40,.T.);
#62=EDGE_CURVE('',#53,#52,#41,.T.);
#63=EDGE_CURVE('',#51,#53,#42,.T.);
#64=EDGE_CURVE('',#50,#49,#43,.T.);
#65=EDGE_CURVE('',#52,#54,#34,.T.);
#66=EDGE_CURVE('',#55,#54,#44,.T.);
#67=EDGE_CURVE('',#54,#55,#45,.T.);
#68=EDGE_CURVE('',#56,#56,#46,.T.);
#69=EDGE_CURVE('',#56,#57,#35,.T.);
#70=EDGE_CURVE('',#57,#58,#47,.T.);
#71=EDGE_CURVE('',#58,#57,#48,.T.);
#72=ORIENTED_EDGE('',*,*,#59,.T.);
#73=ORIENTED_EDGE('',*,*,#60,.T.);
#74=ORIENTED_EDGE('',*,*,#61,.F.);
#75=ORIENTED_EDGE('',*,*,#62,.F.);
#76=ORIENTED_EDGE('',*,*,#63,.F.);
#77=ORIENTED_EDGE('',*,*,#60,.F.);
#78=ORIENTED_EDGE('',*,*,#64,.T.);
#79=ORIENTED_EDGE('',*,*,#62,.T.);
#80=ORIENTED_EDGE('',*,*,#65,.T.);
#81=ORIENTED_EDGE('',*,*,#66,.F.);
#82=ORIENTED_EDGE('',*,*,#67,.F.);
#83=ORIENTED_EDGE('',*,*,#65,.F.);
#84=ORIENTED_EDGE('',*,*,#61,.T.);
#85=ORIENTED_EDGE('',*,*,#63,.T.);
#86=ORIENTED_EDGE('',*,*,#68,.T.);
#87=ORIENTED_EDGE('',*,*,#68,.F.);
#88=ORIENTED_EDGE('',*,*,#69,.T.);
#89=ORIENTED_EDGE('',*,*,#70,.T.);
#90=ORIENTED_EDGE('',*,*,#71,.T.);
#91=ORIENTED_EDGE('',*,*,#69,.F.);
#92=ORIENTED_EDGE('',*,*,#71,.F.);
#93=ORIENTED_EDGE('',*,*,#70,.F.);
#94=ORIENTED_EDGE('',*,*,#66,.T.);
#95=ORIENTED_EDGE('',*,*,#67,.T.);
#96=ORIENTED_EDGE('',*,*,#59,.F.);
#97=ORIENTED_EDGE('',*,*,#64,.F.);
#98=CYLINDRICAL_SURFACE('',#132,2.5);
#99=STYLED_ITEM('',(#235),#106);
#100=STYLED_ITEM('',(#235),#107);
#101=STYLED_ITEM('',(#235),#108);
#102=STYLED_ITEM('',(#235),#109);
#103=STYLED_ITEM('',(#235),#110);
#104=STYLED_ITEM('',(#235),#111);
#105=STYLED_ITEM('',(#234),#13);
#106=ADVANCED_FACE('',(#20),#98,.F.);
#107=ADVANCED_FACE('',(#21),#18,.F.);
#108=ADVANCED_FACE('',(#22),#17,.T.);
#109=ADVANCED_FACE('',(#23),#19,.T.);
#110=ADVANCED_FACE('',(#24,#14),#15,.T.);
#111=ADVANCED_FACE('',(#25),#16,.T.);
#112=CLOSED_SHELL('',(#106,#107,#108,#109,#110,#111));
#113=DERIVED_UNIT_ELEMENT(#115,1.);
#114=DERIVED_UNIT_ELEMENT(#220,3.);
#115=(
MASS_UNIT()
NAMED_UNIT(*)
SI_UNIT($,.GRAM.)
);
#116=DERIVED_UNIT((#113,#114));
#117=MEASURE_REPRESENTATION_ITEM('density measure',
POSITIVE_RATIO_MEASURE(1.),#116);
#118=PROPERTY_DEFINITION_REPRESENTATION(#123,#120);
#119=PROPERTY_DEFINITION_REPRESENTATION(#124,#121);
#120=REPRESENTATION('material name',(#122),#217);
#121=REPRESENTATION('density',(#117),#217);
#122=DESCRIPTIVE_REPRESENTATION_ITEM('Generic','Generic');
#123=PROPERTY_DEFINITION('material property','material name',#227);
#124=PROPERTY_DEFINITION('material property','density of part',#227);
#125=DATE_TIME_ROLE('creation_date');
#126=APPLIED_DATE_AND_TIME_ASSIGNMENT(#127,#125,(#227));
#127=DATE_AND_TIME(#128,#129);
#128=CALENDAR_DATE(2021,14,10);
#129=LOCAL_TIME(0,0,0.,#130);
#130=COORDINATED_UNIVERSAL_TIME_OFFSET(0,0,.BEHIND.);
#131=AXIS2_PLACEMENT_3D('placement',#185,#148,#149);
#132=AXIS2_PLACEMENT_3D('',#186,#150,#151);
#133=AXIS2_PLACEMENT_3D('',#189,#152,#153);
#134=AXIS2_PLACEMENT_3D('',#193,#155,#156);
#135=AXIS2_PLACEMENT_3D('',#195,#157,#158);
#136=AXIS2_PLACEMENT_3D('',#196,#159,#160);
#137=AXIS2_PLACEMENT_3D('',#197,#161,#162);
#138=AXIS2_PLACEMENT_3D('',#198,#163,#164);
#139=AXIS2_PLACEMENT_3D('',#202,#166,#167);
#140=AXIS2_PLACEMENT_3D('',#203,#168,#169);
#141=AXIS2_PLACEMENT_3D('',#204,#170,#171);
#142=AXIS2_PLACEMENT_3D('',#206,#172,#173);
#143=AXIS2_PLACEMENT_3D('',#207,#174,#175);
#144=AXIS2_PLACEMENT_3D('',#211,#177,#178);
#145=AXIS2_PLACEMENT_3D('',#212,#179,#180);
#146=AXIS2_PLACEMENT_3D('',#213,#181,#182);
#147=AXIS2_PLACEMENT_3D('',#214,#183,#184);
#148=DIRECTION('axis',(0.,0.,1.));
#149=DIRECTION('refdir',(1.,0.,0.));
#150=DIRECTION('center_axis',(-3.49148133884313E-15,1.,0.));
#151=DIRECTION('ref_axis',(-1.,-3.49148133884313E-15,0.));
#152=DIRECTION('center_axis',(3.49148133884313E-15,-1.,0.));
#153=DIRECTION('ref_axis',(-1.,-3.49148133884313E-15,0.));
#154=DIRECTION('',(-3.49148133884313E-15,1.,0.));
#155=DIRECTION('center_axis',(0.,-1.,0.));
#156=DIRECTION('ref_axis',(0.,0.,1.));
#157=DIRECTION('center_axis',(0.,-1.,0.));
#158=DIRECTION('ref_axis',(0.,0.,1.));
#159=DIRECTION('center_axis',(0.,-1.,0.));
#160=DIRECTION('ref_axis',(0.,0.,1.));
#161=DIRECTION('center_axis',(3.49148133884313E-15,-1.,0.));
#162=DIRECTION('ref_axis',(-1.,-3.49148133884313E-15,0.));
#163=DIRECTION('center_axis',(0.,1.,0.));
#164=DIRECTION('ref_axis',(0.,0.,1.));
#165=DIRECTION('',(-8.65956056235487E-17,0.707106781186552,-0.707106781186543));
#166=DIRECTION('center_axis',(0.,-1.,0.));
#167=DIRECTION('ref_axis',(0.,0.,-1.));
#168=DIRECTION('center_axis',(0.,-1.,0.));
#169=DIRECTION('ref_axis',(0.,0.,-1.));
#170=DIRECTION('center_axis',(-6.12323399573677E-17,0.,-1.));
#171=DIRECTION('ref_axis',(-1.,-3.51788315253775E-15,0.));
#172=DIRECTION('center_axis',(3.49148133884313E-15,-1.,0.));
#173=DIRECTION('ref_axis',(1.,3.49148133884313E-15,0.));
#174=DIRECTION('center_axis',(3.49148133884313E-15,-1.,0.));
#175=DIRECTION('ref_axis',(1.,3.49148133884313E-15,0.));
#176=DIRECTION('',(0.145493990494825,0.989359135364854,1.78178749754668E-17));
#177=DIRECTION('center_axis',(3.49148133884313E-15,-1.,0.));
#178=DIRECTION('ref_axis',(1.,3.49148133884313E-15,0.));
#179=DIRECTION('center_axis',(3.49148133884313E-15,-1.,0.));
#180=DIRECTION('ref_axis',(1.,3.49148133884313E-15,0.));
#181=DIRECTION('center_axis',(-3.49148133884313E-15,1.,0.));
#182=DIRECTION('ref_axis',(-1.,-3.49148133884313E-15,0.));
#183=DIRECTION('center_axis',(-3.49148133884313E-15,1.,0.));
#184=DIRECTION('ref_axis',(-1.,-3.49148133884313E-15,0.));
#185=CARTESIAN_POINT('',(0.,0.,0.));
#186=CARTESIAN_POINT('Origin',(4.91288706827246E-14,-14.0710678118655,0.));
#187=CARTESIAN_POINT('',(-2.49999999999998,-7.00000000000001,0.));
#188=CARTESIAN_POINT('',(2.50000000000003,-6.99999999999999,-3.06161699786838E-16));
#189=CARTESIAN_POINT('Origin',(2.44403693719019E-14,-7.,0.));
#190=CARTESIAN_POINT('',(2.5,-0.499999999999989,-3.06161699786838E-16));
#191=CARTESIAN_POINT('',(2.50000000000005,-14.0710678118655,-3.06161699786838E-16));
#192=CARTESIAN_POINT('',(-3.06161699786838E-16,-0.500000000000007,-2.5));
#193=CARTESIAN_POINT('Origin',(0.,-0.500000000000006,0.));
#194=CARTESIAN_POINT('',(0.,-0.500000000000006,2.5));
#195=CARTESIAN_POINT('Origin',(0.,-0.500000000000006,0.));
#196=CARTESIAN_POINT('Origin',(0.,-0.500000000000006,0.));
#197=CARTESIAN_POINT('Origin',(2.44403693719019E-14,-7.,0.));
#198=CARTESIAN_POINT('Origin',(0.,-0.900000000000012,0.));
#199=CARTESIAN_POINT('',(-3.67394039744206E-16,2.77555756156289E-16,-3.));
#200=CARTESIAN_POINT('',(-2.57175827820944E-16,-0.900000000000012,-2.1));
#201=CARTESIAN_POINT('',(0.,1.0842021724855E-16,3.));
#202=CARTESIAN_POINT('Origin',(0.,0.,0.));
#203=CARTESIAN_POINT('Origin',(0.,0.,0.));
#204=CARTESIAN_POINT('Origin',(0.,2.75,0.));
#205=CARTESIAN_POINT('',(-5.99999999999994,-8.49999999999998,7.34788079488408E-16));
#206=CARTESIAN_POINT('Origin',(2.96775913801663E-14,-8.49999999999995,0.));
#207=CARTESIAN_POINT('Origin',(2.96775913801663E-14,-8.49999999999995,0.));
#208=CARTESIAN_POINT('',(-4.75,-1.4432899320127E-14,-5.81707229594993E-16));
#209=CARTESIAN_POINT('',(-5.99999999999994,-8.49999999999997,-7.34788079488408E-16));
#210=CARTESIAN_POINT('',(4.75,1.65845363595049E-14,0.));
#211=CARTESIAN_POINT('Origin',(0.,0.,0.));
#212=CARTESIAN_POINT('Origin',(0.,0.,0.));
#213=CARTESIAN_POINT('Origin',(2.89522996062884E-29,-8.29226817975244E-15,
0.));
#214=CARTESIAN_POINT('Origin',(2.44403693719019E-14,-7.,0.));
#215=UNCERTAINTY_MEASURE_WITH_UNIT(LENGTH_MEASURE(0.01),#219,
'DISTANCE_ACCURACY_VALUE',
'Maximum model space distance between geometric entities at asserted c
onnectivities');
#216=UNCERTAINTY_MEASURE_WITH_UNIT(LENGTH_MEASURE(0.01),#219,
'DISTANCE_ACCURACY_VALUE',
'Maximum model space distance between geometric entities at asserted c
onnectivities');
#217=(
GEOMETRIC_REPRESENTATION_CONTEXT(3)
GLOBAL_UNCERTAINTY_ASSIGNED_CONTEXT((#215))
GLOBAL_UNIT_ASSIGNED_CONTEXT((#219,#221,#222))
REPRESENTATION_CONTEXT('','3D')
);
#218=(
GEOMETRIC_REPRESENTATION_CONTEXT(3)
GLOBAL_UNCERTAINTY_ASSIGNED_CONTEXT((#216))
GLOBAL_UNIT_ASSIGNED_CONTEXT((#219,#221,#222))
REPRESENTATION_CONTEXT('','3D')
);
#219=(
LENGTH_UNIT()
NAMED_UNIT(*)
SI_UNIT(.MILLI.,.METRE.)
);
#220=(
LENGTH_UNIT()
NAMED_UNIT(*)
SI_UNIT(.CENTI.,.METRE.)
);
#221=(
NAMED_UNIT(*)
PLANE_ANGLE_UNIT()
SI_UNIT($,.RADIAN.)
);
#222=(
NAMED_UNIT(*)
SI_UNIT($,.STERADIAN.)
SOLID_ANGLE_UNIT()
);
#223=SHAPE_DEFINITION_REPRESENTATION(#224,#225);
#224=PRODUCT_DEFINITION_SHAPE('',$,#227);
#225=SHAPE_REPRESENTATION('',(#131),#217);
#226=PRODUCT_DEFINITION_CONTEXT('part definition',#231,'design');
#227=PRODUCT_DEFINITION('NM5 Simplified','NM5 Simplified',#228,#226);
#228=PRODUCT_DEFINITION_FORMATION('',$,#233);
#229=PRODUCT_RELATED_PRODUCT_CATEGORY('NM5 Simplified','NM5 Simplified',
(#233));
#230=APPLICATION_PROTOCOL_DEFINITION('international standard',
'automotive_design',2009,#231);
#231=APPLICATION_CONTEXT(
'Core Data for Automotive Mechanical Design Process');
#232=PRODUCT_CONTEXT('part definition',#231,'mechanical');
#233=PRODUCT('NM5 Simplified','NM5 Simplified',$,(#232));
#234=PRESENTATION_STYLE_ASSIGNMENT((#236));
#235=PRESENTATION_STYLE_ASSIGNMENT((#237));
#236=SURFACE_STYLE_USAGE(.BOTH.,#242);
#237=SURFACE_STYLE_USAGE(.BOTH.,#243);
#238=SURFACE_STYLE_RENDERING_WITH_PROPERTIES($,#250,(#240));
#239=SURFACE_STYLE_RENDERING_WITH_PROPERTIES($,#251,(#241));
#240=SURFACE_STYLE_TRANSPARENT(0.);
#241=SURFACE_STYLE_TRANSPARENT(0.);
#242=SURFACE_SIDE_STYLE('',(#244,#238));
#243=SURFACE_SIDE_STYLE('',(#245,#239));
#244=SURFACE_STYLE_FILL_AREA(#246);
#245=SURFACE_STYLE_FILL_AREA(#247);
#246=FILL_AREA_STYLE('',(#248));
#247=FILL_AREA_STYLE('',(#249));
#248=FILL_AREA_STYLE_COLOUR('',#250);
#249=FILL_AREA_STYLE_COLOUR('',#251);
#250=COLOUR_RGB('',0.749019607843137,0.749019607843137,0.749019607843137);
#251=COLOUR_RGB('',0.298039215686275,0.298039215686275,0.298039215686275);
ENDSEC;
END-ISO-10303-21;
