ISO-10303-21;
HEADER;
/* Generated by software containing ST-Developer
 * from STEP Tools, Inc. (www.steptools.com) 
 */

FILE_DESCRIPTION(
/* description */ (''),
/* implementation_level */ '2;1');

FILE_NAME(
/* name */ 'C:\\TEMP\\NM12 Simplified.stp',
/* time_stamp */ '2021-10-14T15:41:24+01:00',
/* author */ ('Sandfield Engineering'),
/* organization */ ('Sandfield Engineering'),
/* preprocessor_version */ 'ST-DEVELOPER v18.1',
/* originating_system */ 'Autodesk Inventor 2021',
/* authorisation */ '');

FILE_SCHEMA (('AUTOMOTIVE_DESIGN { 1 0 10303 214 3 1 1 }'));
ENDSEC;

DATA;
#10=MECHANICAL_DESIGN_GEOMETRIC_PRESENTATION_REPRESENTATION('',(#190,#191,
#192,#193,#194,#195,#196,#197,#198,#199,#200,#201),#404);
#11=SHAPE_REPRESENTATION_RELATIONSHIP('SRR','None',#411,#12);
#12=ADVANCED_BREP_SHAPE_REPRESENTATION('',(#13),#403);
#13=MANIFOLD_SOLID_BREP('Solid1',#213);
#14=TOROIDAL_SURFACE('',#254,14.2565820000895,0.499999999999999);
#15=TOROIDAL_SURFACE('',#263,11.2601828231348,0.500000000000001);
#16=FACE_BOUND('',#40,.T.);
#17=FACE_BOUND('',#44,.T.);
#18=PLANE('',#242);
#19=PLANE('',#247);
#20=PLANE('',#250);
#21=CONICAL_SURFACE('',#238,5.2765,0.785398163397448);
#22=CONICAL_SURFACE('',#241,2.5265,1.02974425867665);
#23=CONICAL_SURFACE('',#244,8.,0.785398163397448);
#24=CONICAL_SURFACE('',#259,13.2542984553263,0.127898834919423);
#25=FACE_OUTER_BOUND('',#36,.T.);
#26=FACE_OUTER_BOUND('',#37,.T.);
#27=FACE_OUTER_BOUND('',#38,.T.);
#28=FACE_OUTER_BOUND('',#39,.T.);
#29=FACE_OUTER_BOUND('',#41,.T.);
#30=FACE_OUTER_BOUND('',#42,.T.);
#31=FACE_OUTER_BOUND('',#43,.T.);
#32=FACE_OUTER_BOUND('',#45,.T.);
#33=FACE_OUTER_BOUND('',#46,.T.);
#34=FACE_OUTER_BOUND('',#47,.T.);
#35=FACE_OUTER_BOUND('',#48,.T.);
#36=EDGE_LOOP('',(#132,#133,#134,#135,#136,#137));
#37=EDGE_LOOP('',(#138,#139,#140,#141,#142,#143));
#38=EDGE_LOOP('',(#144,#145,#146,#147));
#39=EDGE_LOOP('',(#148));
#40=EDGE_LOOP('',(#149,#150));
#41=EDGE_LOOP('',(#151,#152,#153,#154,#155));
#42=EDGE_LOOP('',(#156,#157));
#43=EDGE_LOOP('',(#158,#159));
#44=EDGE_LOOP('',(#160));
#45=EDGE_LOOP('',(#161,#162,#163,#164,#165,#166,#167));
#46=EDGE_LOOP('',(#168,#169,#170,#171,#172,#173,#174,#175));
#47=EDGE_LOOP('',(#176,#177,#178,#179,#180,#181,#182));
#48=EDGE_LOOP('',(#183,#184,#185,#186,#187));
#49=LINE('',#346,#55);
#50=LINE('',#356,#56);
#51=LINE('',#359,#57);
#52=LINE('',#365,#58);
#53=LINE('',#391,#59);
#54=LINE('',#400,#60);
#55=VECTOR('',#272,5.053);
#56=VECTOR('',#285,5.2765);
#57=VECTOR('',#288,2.5265);
#58=VECTOR('',#295,8.);
#59=VECTOR('',#326,13.2542984553263);
#60=VECTOR('',#339,8.25);
#61=CIRCLE('',#234,5.053);
#62=CIRCLE('',#235,5.053);
#63=CIRCLE('',#236,5.053);
#64=CIRCLE('',#237,5.053);
#65=CIRCLE('',#239,5.5);
#66=CIRCLE('',#240,5.5);
#67=CIRCLE('',#243,7.75);
#68=CIRCLE('',#245,8.25);
#69=CIRCLE('',#246,8.25);
#70=CIRCLE('',#248,11.2601828231348);
#71=CIRCLE('',#249,11.2601828231348);
#72=CIRCLE('',#251,14.2565820000895);
#73=CIRCLE('',#252,14.2565820000895);
#74=CIRCLE('',#253,8.25);
#75=CIRCLE('',#255,0.499999999999999);
#76=CIRCLE('',#256,14.7524980438036);
#77=CIRCLE('',#257,14.7524980438036);
#78=CIRCLE('',#258,14.7524980438036);
#79=CIRCLE('',#260,11.7560988668489);
#80=CIRCLE('',#261,11.7560988668489);
#81=CIRCLE('',#262,11.7560988668489);
#82=CIRCLE('',#264,0.500000000000001);
#83=VERTEX_POINT('',#342);
#84=VERTEX_POINT('',#343);
#85=VERTEX_POINT('',#345);
#86=VERTEX_POINT('',#347);
#87=VERTEX_POINT('',#352);
#88=VERTEX_POINT('',#353);
#89=VERTEX_POINT('',#358);
#90=VERTEX_POINT('',#361);
#91=VERTEX_POINT('',#364);
#92=VERTEX_POINT('',#366);
#93=VERTEX_POINT('',#370);
#94=VERTEX_POINT('',#371);
#95=VERTEX_POINT('',#375);
#96=VERTEX_POINT('',#376);
#97=VERTEX_POINT('',#379);
#98=VERTEX_POINT('',#382);
#99=VERTEX_POINT('',#384);
#100=VERTEX_POINT('',#386);
#101=VERTEX_POINT('',#390);
#102=VERTEX_POINT('',#392);
#103=VERTEX_POINT('',#394);
#104=EDGE_CURVE('',#83,#84,#61,.T.);
#105=EDGE_CURVE('',#84,#85,#49,.T.);
#106=EDGE_CURVE('',#86,#85,#62,.T.);
#107=EDGE_CURVE('',#85,#86,#63,.T.);
#108=EDGE_CURVE('',#84,#83,#64,.T.);
#109=EDGE_CURVE('',#87,#88,#65,.T.);
#110=EDGE_CURVE('',#88,#87,#66,.T.);
#111=EDGE_CURVE('',#88,#84,#50,.T.);
#112=EDGE_CURVE('',#85,#89,#51,.T.);
#113=EDGE_CURVE('',#90,#90,#67,.T.);
#114=EDGE_CURVE('',#90,#91,#52,.T.);
#115=EDGE_CURVE('',#91,#92,#68,.T.);
#116=EDGE_CURVE('',#92,#91,#69,.T.);
#117=EDGE_CURVE('',#93,#94,#70,.T.);
#118=EDGE_CURVE('',#94,#93,#71,.T.);
#119=EDGE_CURVE('',#95,#96,#72,.T.);
#120=EDGE_CURVE('',#96,#95,#73,.T.);
#121=EDGE_CURVE('',#97,#97,#74,.T.);
#122=EDGE_CURVE('',#96,#98,#75,.T.);
#123=EDGE_CURVE('',#98,#99,#76,.T.);
#124=EDGE_CURVE('',#99,#100,#77,.T.);
#125=EDGE_CURVE('',#100,#98,#78,.T.);
#126=EDGE_CURVE('',#100,#101,#53,.T.);
#127=EDGE_CURVE('',#101,#102,#79,.T.);
#128=EDGE_CURVE('',#102,#103,#80,.T.);
#129=EDGE_CURVE('',#103,#101,#81,.T.);
#130=EDGE_CURVE('',#102,#94,#82,.T.);
#131=EDGE_CURVE('',#97,#92,#54,.T.);
#132=ORIENTED_EDGE('',*,*,#104,.T.);
#133=ORIENTED_EDGE('',*,*,#105,.T.);
#134=ORIENTED_EDGE('',*,*,#106,.F.);
#135=ORIENTED_EDGE('',*,*,#107,.F.);
#136=ORIENTED_EDGE('',*,*,#105,.F.);
#137=ORIENTED_EDGE('',*,*,#108,.T.);
#138=ORIENTED_EDGE('',*,*,#109,.F.);
#139=ORIENTED_EDGE('',*,*,#110,.F.);
#140=ORIENTED_EDGE('',*,*,#111,.T.);
#141=ORIENTED_EDGE('',*,*,#104,.F.);
#142=ORIENTED_EDGE('',*,*,#108,.F.);
#143=ORIENTED_EDGE('',*,*,#111,.F.);
#144=ORIENTED_EDGE('',*,*,#106,.T.);
#145=ORIENTED_EDGE('',*,*,#112,.T.);
#146=ORIENTED_EDGE('',*,*,#112,.F.);
#147=ORIENTED_EDGE('',*,*,#107,.T.);
#148=ORIENTED_EDGE('',*,*,#113,.F.);
#149=ORIENTED_EDGE('',*,*,#109,.T.);
#150=ORIENTED_EDGE('',*,*,#110,.T.);
#151=ORIENTED_EDGE('',*,*,#113,.T.);
#152=ORIENTED_EDGE('',*,*,#114,.T.);
#153=ORIENTED_EDGE('',*,*,#115,.T.);
#154=ORIENTED_EDGE('',*,*,#116,.T.);
#155=ORIENTED_EDGE('',*,*,#114,.F.);
#156=ORIENTED_EDGE('',*,*,#117,.F.);
#157=ORIENTED_EDGE('',*,*,#118,.F.);
#158=ORIENTED_EDGE('',*,*,#119,.T.);
#159=ORIENTED_EDGE('',*,*,#120,.T.);
#160=ORIENTED_EDGE('',*,*,#121,.T.);
#161=ORIENTED_EDGE('',*,*,#119,.F.);
#162=ORIENTED_EDGE('',*,*,#120,.F.);
#163=ORIENTED_EDGE('',*,*,#122,.T.);
#164=ORIENTED_EDGE('',*,*,#123,.T.);
#165=ORIENTED_EDGE('',*,*,#124,.T.);
#166=ORIENTED_EDGE('',*,*,#125,.T.);
#167=ORIENTED_EDGE('',*,*,#122,.F.);
#168=ORIENTED_EDGE('',*,*,#124,.F.);
#169=ORIENTED_EDGE('',*,*,#123,.F.);
#170=ORIENTED_EDGE('',*,*,#125,.F.);
#171=ORIENTED_EDGE('',*,*,#126,.T.);
#172=ORIENTED_EDGE('',*,*,#127,.T.);
#173=ORIENTED_EDGE('',*,*,#128,.T.);
#174=ORIENTED_EDGE('',*,*,#129,.T.);
#175=ORIENTED_EDGE('',*,*,#126,.F.);
#176=ORIENTED_EDGE('',*,*,#129,.F.);
#177=ORIENTED_EDGE('',*,*,#128,.F.);
#178=ORIENTED_EDGE('',*,*,#130,.T.);
#179=ORIENTED_EDGE('',*,*,#118,.T.);
#180=ORIENTED_EDGE('',*,*,#117,.T.);
#181=ORIENTED_EDGE('',*,*,#130,.F.);
#182=ORIENTED_EDGE('',*,*,#127,.F.);
#183=ORIENTED_EDGE('',*,*,#121,.F.);
#184=ORIENTED_EDGE('',*,*,#131,.T.);
#185=ORIENTED_EDGE('',*,*,#115,.F.);
#186=ORIENTED_EDGE('',*,*,#116,.F.);
#187=ORIENTED_EDGE('',*,*,#131,.F.);
#188=CYLINDRICAL_SURFACE('',#233,5.053);
#189=CYLINDRICAL_SURFACE('',#265,8.25);
#190=STYLED_ITEM('',(#421),#202);
#191=STYLED_ITEM('',(#421),#203);
#192=STYLED_ITEM('',(#421),#204);
#193=STYLED_ITEM('',(#421),#205);
#194=STYLED_ITEM('',(#421),#206);
#195=STYLED_ITEM('',(#422),#207);
#196=STYLED_ITEM('',(#422),#208);
#197=STYLED_ITEM('',(#422),#209);
#198=STYLED_ITEM('',(#422),#210);
#199=STYLED_ITEM('',(#422),#211);
#200=STYLED_ITEM('',(#422),#212);
#201=STYLED_ITEM('',(#420),#13);
#202=ADVANCED_FACE('',(#25),#188,.F.);
#203=ADVANCED_FACE('',(#26),#21,.F.);
#204=ADVANCED_FACE('',(#27),#22,.F.);
#205=ADVANCED_FACE('',(#28,#16),#18,.T.);
#206=ADVANCED_FACE('',(#29),#23,.T.);
#207=ADVANCED_FACE('',(#30),#19,.T.);
#208=ADVANCED_FACE('',(#31,#17),#20,.T.);
#209=ADVANCED_FACE('',(#32),#14,.T.);
#210=ADVANCED_FACE('',(#33),#24,.T.);
#211=ADVANCED_FACE('',(#34),#15,.T.);
#212=ADVANCED_FACE('',(#35),#189,.F.);
#213=CLOSED_SHELL('',(#202,#203,#204,#205,#206,#207,#208,#209,#210,#211,
#212));
#214=DERIVED_UNIT_ELEMENT(#216,1.);
#215=DERIVED_UNIT_ELEMENT(#406,3.);
#216=(
MASS_UNIT()
NAMED_UNIT(*)
SI_UNIT($,.GRAM.)
);
#217=DERIVED_UNIT((#214,#215));
#218=MEASURE_REPRESENTATION_ITEM('density measure',
POSITIVE_RATIO_MEASURE(1.),#217);
#219=PROPERTY_DEFINITION_REPRESENTATION(#224,#221);
#220=PROPERTY_DEFINITION_REPRESENTATION(#225,#222);
#221=REPRESENTATION('material name',(#223),#403);
#222=REPRESENTATION('density',(#218),#403);
#223=DESCRIPTIVE_REPRESENTATION_ITEM('Generic','Generic');
#224=PROPERTY_DEFINITION('material property','material name',#413);
#225=PROPERTY_DEFINITION('material property','density of part',#413);
#226=DATE_TIME_ROLE('creation_date');
#227=APPLIED_DATE_AND_TIME_ASSIGNMENT(#228,#226,(#413));
#228=DATE_AND_TIME(#229,#230);
#229=CALENDAR_DATE(2021,14,10);
#230=LOCAL_TIME(0,0,0.,#231);
#231=COORDINATED_UNIVERSAL_TIME_OFFSET(0,0,.BEHIND.);
#232=AXIS2_PLACEMENT_3D('placement',#340,#266,#267);
#233=AXIS2_PLACEMENT_3D('',#341,#268,#269);
#234=AXIS2_PLACEMENT_3D('',#344,#270,#271);
#235=AXIS2_PLACEMENT_3D('',#348,#273,#274);
#236=AXIS2_PLACEMENT_3D('',#349,#275,#276);
#237=AXIS2_PLACEMENT_3D('',#350,#277,#278);
#238=AXIS2_PLACEMENT_3D('',#351,#279,#280);
#239=AXIS2_PLACEMENT_3D('',#354,#281,#282);
#240=AXIS2_PLACEMENT_3D('',#355,#283,#284);
#241=AXIS2_PLACEMENT_3D('',#357,#286,#287);
#242=AXIS2_PLACEMENT_3D('',#360,#289,#290);
#243=AXIS2_PLACEMENT_3D('',#362,#291,#292);
#244=AXIS2_PLACEMENT_3D('',#363,#293,#294);
#245=AXIS2_PLACEMENT_3D('',#367,#296,#297);
#246=AXIS2_PLACEMENT_3D('',#368,#298,#299);
#247=AXIS2_PLACEMENT_3D('',#369,#300,#301);
#248=AXIS2_PLACEMENT_3D('',#372,#302,#303);
#249=AXIS2_PLACEMENT_3D('',#373,#304,#305);
#250=AXIS2_PLACEMENT_3D('',#374,#306,#307);
#251=AXIS2_PLACEMENT_3D('',#377,#308,#309);
#252=AXIS2_PLACEMENT_3D('',#378,#310,#311);
#253=AXIS2_PLACEMENT_3D('',#380,#312,#313);
#254=AXIS2_PLACEMENT_3D('',#381,#314,#315);
#255=AXIS2_PLACEMENT_3D('',#383,#316,#317);
#256=AXIS2_PLACEMENT_3D('',#385,#318,#319);
#257=AXIS2_PLACEMENT_3D('',#387,#320,#321);
#258=AXIS2_PLACEMENT_3D('',#388,#322,#323);
#259=AXIS2_PLACEMENT_3D('',#389,#324,#325);
#260=AXIS2_PLACEMENT_3D('',#393,#327,#328);
#261=AXIS2_PLACEMENT_3D('',#395,#329,#330);
#262=AXIS2_PLACEMENT_3D('',#396,#331,#332);
#263=AXIS2_PLACEMENT_3D('',#397,#333,#334);
#264=AXIS2_PLACEMENT_3D('',#398,#335,#336);
#265=AXIS2_PLACEMENT_3D('',#399,#337,#338);
#266=DIRECTION('axis',(0.,0.,1.));
#267=DIRECTION('refdir',(1.,0.,0.));
#268=DIRECTION('center_axis',(-9.40681532474579E-16,1.,-3.37211372594409E-16));
#269=DIRECTION('ref_axis',(1.,9.40681532474578E-16,-1.21430643318377E-16));
#270=DIRECTION('center_axis',(-9.40681532474579E-16,1.,-3.37211372594409E-16));
#271=DIRECTION('ref_axis',(1.,9.40681532474578E-16,-1.21430643318377E-16));
#272=DIRECTION('',(9.40681532474578E-16,-1.,3.37211372594409E-16));
#273=DIRECTION('center_axis',(-9.40681532474579E-16,1.,-3.37211372594409E-16));
#274=DIRECTION('ref_axis',(1.,9.40681532474578E-16,-1.21430643318377E-16));
#275=DIRECTION('center_axis',(-9.40681532474579E-16,1.,-3.37211372594409E-16));
#276=DIRECTION('ref_axis',(1.,9.40681532474578E-16,-1.21430643318377E-16));
#277=DIRECTION('center_axis',(-9.40681532474579E-16,1.,-3.37211372594409E-16));
#278=DIRECTION('ref_axis',(1.,9.40681532474578E-16,-1.21430643318377E-16));
#279=DIRECTION('center_axis',(-9.40681532474579E-16,1.,-3.37211372594409E-16));
#280=DIRECTION('ref_axis',(1.,9.40681532474579E-16,-1.21430643318377E-16));
#281=DIRECTION('center_axis',(9.40681532474579E-16,-1.,3.37211372594409E-16));
#282=DIRECTION('ref_axis',(1.,9.40681532474579E-16,-1.21430643318377E-16));
#283=DIRECTION('center_axis',(9.40681532474579E-16,-1.,3.37211372594409E-16));
#284=DIRECTION('ref_axis',(1.,9.40681532474579E-16,-1.21430643318377E-16));
#285=DIRECTION('',(0.707106781186548,-0.707106781186547,6.59844112969115E-17));
#286=DIRECTION('center_axis',(-9.40681532474579E-16,1.,-3.37211372594409E-16));
#287=DIRECTION('ref_axis',(1.,9.40681532474578E-16,-1.21430643318377E-16));
#288=DIRECTION('',(0.857167300702113,-0.515038074910053,-3.53823996907947E-17));
#289=DIRECTION('center_axis',(-9.40681532474579E-16,1.,-3.37211372594409E-16));
#290=DIRECTION('ref_axis',(1.,9.40681532474579E-16,-1.21430643318377E-16));
#291=DIRECTION('center_axis',(9.40681532474579E-16,-1.,3.37211372594409E-16));
#292=DIRECTION('ref_axis',(-1.,-9.40681532474579E-16,1.21430643318377E-16));
#293=DIRECTION('center_axis',(9.40681532474579E-16,-1.,3.37211372594409E-16));
#294=DIRECTION('ref_axis',(-1.,-9.40681532474579E-16,1.21430643318377E-16));
#295=DIRECTION('',(0.707106781186548,-0.707106781186547,6.59844112969114E-17));
#296=DIRECTION('center_axis',(-9.40681532474579E-16,1.,-3.37211372594409E-16));
#297=DIRECTION('ref_axis',(-1.,-9.40681532474579E-16,1.21430643318377E-16));
#298=DIRECTION('center_axis',(-9.40681532474579E-16,1.,-3.37211372594409E-16));
#299=DIRECTION('ref_axis',(-1.,-9.40681532474579E-16,1.21430643318377E-16));
#300=DIRECTION('center_axis',(-2.9792420638928E-16,-1.,4.99047121161777E-16));
#301=DIRECTION('ref_axis',(0.582607391899576,-5.79175254429662E-16,-0.812753730784408));
#302=DIRECTION('center_axis',(2.9792420638928E-16,1.,-4.99047121161777E-16));
#303=DIRECTION('ref_axis',(0.812753730784408,4.86095314611837E-17,0.582607391899576));
#304=DIRECTION('center_axis',(2.9792420638928E-16,1.,-4.99047121161777E-16));
#305=DIRECTION('ref_axis',(0.812753730784408,4.86095314611837E-17,0.582607391899576));
#306=DIRECTION('center_axis',(2.9792420638928E-16,1.,-4.99047121161777E-16));
#307=DIRECTION('ref_axis',(-0.582607391899576,5.79175254429662E-16,0.812753730784408));
#308=DIRECTION('center_axis',(2.9792420638928E-16,1.,-4.99047121161777E-16));
#309=DIRECTION('ref_axis',(0.812753730784408,4.86095314611837E-17,0.582607391899576));
#310=DIRECTION('center_axis',(2.9792420638928E-16,1.,-4.99047121161777E-16));
#311=DIRECTION('ref_axis',(0.812753730784408,4.86095314611837E-17,0.582607391899576));
#312=DIRECTION('center_axis',(-2.9792420638928E-16,-1.,4.99047121161777E-16));
#313=DIRECTION('ref_axis',(-0.812753730784408,-4.86095314611837E-17,-0.582607391899576));
#314=DIRECTION('center_axis',(2.9792420638928E-16,1.,-4.99047121161777E-16));
#315=DIRECTION('ref_axis',(-0.582607391899576,9.63018042736169E-16,0.812753730784408));
#316=DIRECTION('center_axis',(-0.812753730784408,-4.86095314611838E-17,
-0.582607391899576));
#317=DIRECTION('ref_axis',(0.582607391899576,-6.01886276710106E-16,-0.812753730784408));
#318=DIRECTION('center_axis',(2.9792420638928E-16,1.,-4.99047121161777E-16));
#319=DIRECTION('ref_axis',(0.812753730784408,4.86095314611837E-17,0.582607391899576));
#320=DIRECTION('center_axis',(2.9792420638928E-16,1.,-4.99047121161777E-16));
#321=DIRECTION('ref_axis',(0.812753730784408,4.86095314611837E-17,0.582607391899576));
#322=DIRECTION('center_axis',(2.9792420638928E-16,1.,-4.99047121161777E-16));
#323=DIRECTION('ref_axis',(0.812753730784408,4.86095314611837E-17,0.582607391899576));
#324=DIRECTION('center_axis',(2.9792420638928E-16,1.,-4.99047121161777E-16));
#325=DIRECTION('ref_axis',(-0.812753730784408,-4.86095314611837E-17,-0.582607391899576));
#326=DIRECTION('',(-0.103667081966175,-0.99183208742822,-0.0743118191433727));
#327=DIRECTION('center_axis',(2.9792420638928E-16,1.,-4.99047121161777E-16));
#328=DIRECTION('ref_axis',(0.812753730784408,4.86095314611837E-17,0.582607391899576));
#329=DIRECTION('center_axis',(2.9792420638928E-16,1.,-4.99047121161777E-16));
#330=DIRECTION('ref_axis',(0.812753730784408,4.86095314611837E-17,0.582607391899576));
#331=DIRECTION('center_axis',(2.9792420638928E-16,1.,-4.99047121161777E-16));
#332=DIRECTION('ref_axis',(0.812753730784408,4.86095314611837E-17,0.582607391899576));
#333=DIRECTION('center_axis',(2.9792420638928E-16,1.,-4.99047121161777E-16));
#334=DIRECTION('ref_axis',(-0.582607391899576,0.,0.812753730784408));
#335=DIRECTION('center_axis',(-0.812753730784408,-4.86095314611838E-17,
-0.582607391899576));
#336=DIRECTION('ref_axis',(0.582607391899576,0.,-0.812753730784408));
#337=DIRECTION('center_axis',(-2.9792420638928E-16,-1.,4.99047121161777E-16));
#338=DIRECTION('ref_axis',(-0.812753730784408,-4.86095314611837E-17,-0.582607391899576));
#339=DIRECTION('',(-2.9792420638928E-16,-1.,4.99047121161777E-16));
#340=CARTESIAN_POINT('',(0.,0.,0.));
#341=CARTESIAN_POINT('Origin',(-76.7580822057905,-83.651857182832,6.44402249501833));
#342=CARTESIAN_POINT('',(-71.7050822057905,-76.598857182832,6.44402249501833));
#343=CARTESIAN_POINT('',(-81.8110822057905,-76.598857182832,6.44402249501833));
#344=CARTESIAN_POINT('Origin',(-76.7580822057906,-76.598857182832,6.44402249501833));
#345=CARTESIAN_POINT('',(-81.8110822057905,-91.151857182832,6.44402249501834));
#346=CARTESIAN_POINT('',(-81.8110822057905,-83.651857182832,6.44402249501833));
#347=CARTESIAN_POINT('',(-71.7050822057905,-91.151857182832,6.44402249501833));
#348=CARTESIAN_POINT('Origin',(-76.7580822057905,-91.151857182832,6.44402249501834));
#349=CARTESIAN_POINT('Origin',(-76.7580822057905,-91.151857182832,6.44402249501834));
#350=CARTESIAN_POINT('Origin',(-76.7580822057906,-76.598857182832,6.44402249501833));
#351=CARTESIAN_POINT('Origin',(-76.7580822057906,-76.375357182832,6.44402249501833));
#352=CARTESIAN_POINT('',(-71.2580822057906,-76.151857182832,6.44402249501833));
#353=CARTESIAN_POINT('',(-82.2580822057906,-76.151857182832,6.44402249501833));
#354=CARTESIAN_POINT('Origin',(-76.7580822057906,-76.151857182832,6.44402249501833));
#355=CARTESIAN_POINT('Origin',(-76.7580822057906,-76.151857182832,6.44402249501833));
#356=CARTESIAN_POINT('',(-82.0345822057905,-76.375357182832,6.44402249501833));
#357=CARTESIAN_POINT('Origin',(-76.7580822057905,-92.6699315368052,6.44402249501834));
#358=CARTESIAN_POINT('',(-76.7580822057905,-94.1880058907783,6.44402249501834));
#359=CARTESIAN_POINT('',(-79.2845822057905,-92.6699315368052,6.44402249501834));
#360=CARTESIAN_POINT('Origin',(-76.7580822057906,-76.151857182832,6.44402249501833));
#361=CARTESIAN_POINT('',(-69.0080822057905,-76.151857182832,6.44402249501833));
#362=CARTESIAN_POINT('Origin',(-76.7580822057906,-76.151857182832,6.44402249501833));
#363=CARTESIAN_POINT('Origin',(-76.7580822057906,-76.401857182832,6.44402249501833));
#364=CARTESIAN_POINT('',(-68.5080822057906,-76.651857182832,6.44402249501833));
#365=CARTESIAN_POINT('',(-68.7580822057906,-76.401857182832,6.44402249501833));
#366=CARTESIAN_POINT('',(-70.0528639268192,-76.6518571828321,11.2505334781898));
#367=CARTESIAN_POINT('Origin',(-76.7580822057906,-76.651857182832,6.44402249501833));
#368=CARTESIAN_POINT('Origin',(-76.7580822057906,-76.651857182832,6.44402249501833));
#369=CARTESIAN_POINT('Origin',(-85.9098378046079,-100.451857182832,-0.116243251880611));
#370=CARTESIAN_POINT('',(-85.9098378046079,-100.451857182832,-0.116243251880611));
#371=CARTESIAN_POINT('',(-70.1978164588916,-100.451857182832,-2.70773310379895));
#372=CARTESIAN_POINT('Origin',(-76.7580822057905,-100.451857182832,6.44402249501835));
#373=CARTESIAN_POINT('Origin',(-76.7580822057905,-100.451857182832,6.44402249501835));
#374=CARTESIAN_POINT('Origin',(-76.7580822057905,-76.151857182832,6.44402249501834));
#375=CARTESIAN_POINT('',(-88.3451724145971,-76.151857182832,-1.86196756145626));
#376=CARTESIAN_POINT('',(-68.4520921493159,-76.151857182832,-5.14306771378826));
#377=CARTESIAN_POINT('Origin',(-76.7580822057905,-76.151857182832,6.44402249501834));
#378=CARTESIAN_POINT('Origin',(-76.7580822057905,-76.151857182832,6.44402249501834));
#379=CARTESIAN_POINT('',(-70.0528639268192,-76.151857182832,11.2505334781898));
#380=CARTESIAN_POINT('Origin',(-76.7580822057905,-76.151857182832,6.44402249501834));
#381=CARTESIAN_POINT('Origin',(-76.7580822057905,-76.651857182832,6.44402249501834));
#382=CARTESIAN_POINT('',(-68.1631677964865,-76.715632394215,-5.54612532847275));
#383=CARTESIAN_POINT('Origin',(-68.4520921493159,-76.651857182832,-5.14306771378826));
#384=CARTESIAN_POINT('',(-88.7482300292816,-76.715632394215,-2.1508919142857));
#385=CARTESIAN_POINT('Origin',(-76.7580822057905,-76.715632394215,6.44402249501834));
#386=CARTESIAN_POINT('',(-64.7679343822995,-76.715632394215,15.0389369043224));
#387=CARTESIAN_POINT('Origin',(-76.7580822057905,-76.715632394215,6.44402249501834));
#388=CARTESIAN_POINT('Origin',(-76.7580822057905,-76.715632394215,6.44402249501834));
#389=CARTESIAN_POINT('Origin',(-76.7580822057905,-88.365632394215,6.44402249501835));
#390=CARTESIAN_POINT('',(-67.2032689922888,-100.015632394215,13.2932125947467));
#391=CARTESIAN_POINT('',(-65.9856016872941,-88.365632394215,14.1660747495346));
#392=CARTESIAN_POINT('',(-69.9088921060621,-100.015632394215,-3.11079071848344));
#393=CARTESIAN_POINT('Origin',(-76.7580822057905,-100.015632394215,6.44402249501835));
#394=CARTESIAN_POINT('',(-86.3128954192923,-100.015632394215,-0.405167604710045));
#395=CARTESIAN_POINT('Origin',(-76.7580822057905,-100.015632394215,6.44402249501835));
#396=CARTESIAN_POINT('Origin',(-76.7580822057905,-100.015632394215,6.44402249501835));
#397=CARTESIAN_POINT('Origin',(-76.7580822057905,-99.951857182832,6.44402249501835));
#398=CARTESIAN_POINT('Origin',(-70.1978164588916,-99.951857182832,-2.70773310379895));
#399=CARTESIAN_POINT('Origin',(-76.7580822057905,-76.151857182832,6.44402249501834));
#400=CARTESIAN_POINT('',(-70.0528639268192,-76.151857182832,11.2505334781898));
#401=UNCERTAINTY_MEASURE_WITH_UNIT(LENGTH_MEASURE(0.01),#405,
'DISTANCE_ACCURACY_VALUE',
'Maximum model space distance between geometric entities at asserted c
onnectivities');
#402=UNCERTAINTY_MEASURE_WITH_UNIT(LENGTH_MEASURE(0.01),#405,
'DISTANCE_ACCURACY_VALUE',
'Maximum model space distance between geometric entities at asserted c
onnectivities');
#403=(
GEOMETRIC_REPRESENTATION_CONTEXT(3)
GLOBAL_UNCERTAINTY_ASSIGNED_CONTEXT((#401))
GLOBAL_UNIT_ASSIGNED_CONTEXT((#405,#407,#408))
REPRESENTATION_CONTEXT('','3D')
);
#404=(
GEOMETRIC_REPRESENTATION_CONTEXT(3)
GLOBAL_UNCERTAINTY_ASSIGNED_CONTEXT((#402))
GLOBAL_UNIT_ASSIGNED_CONTEXT((#405,#407,#408))
REPRESENTATION_CONTEXT('','3D')
);
#405=(
LENGTH_UNIT()
NAMED_UNIT(*)
SI_UNIT(.MILLI.,.METRE.)
);
#406=(
LENGTH_UNIT()
NAMED_UNIT(*)
SI_UNIT(.CENTI.,.METRE.)
);
#407=(
NAMED_UNIT(*)
PLANE_ANGLE_UNIT()
SI_UNIT($,.RADIAN.)
);
#408=(
NAMED_UNIT(*)
SI_UNIT($,.STERADIAN.)
SOLID_ANGLE_UNIT()
);
#409=SHAPE_DEFINITION_REPRESENTATION(#410,#411);
#410=PRODUCT_DEFINITION_SHAPE('',$,#413);
#411=SHAPE_REPRESENTATION('',(#232),#403);
#412=PRODUCT_DEFINITION_CONTEXT('part definition',#417,'design');
#413=PRODUCT_DEFINITION('NM12 Simplified','NM12 Simplified',#414,#412);
#414=PRODUCT_DEFINITION_FORMATION('',$,#419);
#415=PRODUCT_RELATED_PRODUCT_CATEGORY('NM12 Simplified',
'NM12 Simplified',(#419));
#416=APPLICATION_PROTOCOL_DEFINITION('international standard',
'automotive_design',2009,#417);
#417=APPLICATION_CONTEXT(
'Core Data for Automotive Mechanical Design Process');
#418=PRODUCT_CONTEXT('part definition',#417,'mechanical');
#419=PRODUCT('NM12 Simplified','NM12 Simplified',$,(#418));
#420=PRESENTATION_STYLE_ASSIGNMENT((#423));
#421=PRESENTATION_STYLE_ASSIGNMENT((#424));
#422=PRESENTATION_STYLE_ASSIGNMENT((#425));
#423=SURFACE_STYLE_USAGE(.BOTH.,#432);
#424=SURFACE_STYLE_USAGE(.BOTH.,#433);
#425=SURFACE_STYLE_USAGE(.BOTH.,#434);
#426=SURFACE_STYLE_RENDERING_WITH_PROPERTIES($,#444,(#429));
#427=SURFACE_STYLE_RENDERING_WITH_PROPERTIES($,#445,(#430));
#428=SURFACE_STYLE_RENDERING_WITH_PROPERTIES($,#446,(#431));
#429=SURFACE_STYLE_TRANSPARENT(0.);
#430=SURFACE_STYLE_TRANSPARENT(0.);
#431=SURFACE_STYLE_TRANSPARENT(0.);
#432=SURFACE_SIDE_STYLE('',(#435,#426));
#433=SURFACE_SIDE_STYLE('',(#436,#427));
#434=SURFACE_SIDE_STYLE('',(#437,#428));
#435=SURFACE_STYLE_FILL_AREA(#438);
#436=SURFACE_STYLE_FILL_AREA(#439);
#437=SURFACE_STYLE_FILL_AREA(#440);
#438=FILL_AREA_STYLE('',(#441));
#439=FILL_AREA_STYLE('',(#442));
#440=FILL_AREA_STYLE('',(#443));
#441=FILL_AREA_STYLE_COLOUR('',#444);
#442=FILL_AREA_STYLE_COLOUR('',#445);
#443=FILL_AREA_STYLE_COLOUR('',#446);
#444=COLOUR_RGB('',0.749019607843137,0.749019607843137,0.749019607843137);
#445=COLOUR_RGB('',0.87843137254902,0.874509803921569,0.858823529411765);
#446=COLOUR_RGB('',0.250980392156863,0.250980392156863,0.250980392156863);
ENDSEC;
END-ISO-10303-21;
