ISO-10303-21;
HEADER;
/* Generated by software containing ST-Developer
 * from STEP Tools, Inc. (www.steptools.com) 
 */

FILE_DESCRIPTION(
/* description */ (''),
/* implementation_level */ '2;1');

FILE_NAME(
/* name */ 'C:\\TEMP\\NM10 Simplified.stp',
/* time_stamp */ '2021-10-14T15:43:08+01:00',
/* author */ ('Sandfield Engineering'),
/* organization */ ('Sandfield Engineering'),
/* preprocessor_version */ 'ST-DEVELOPER v18.1',
/* originating_system */ 'Autodesk Inventor 2021',
/* authorisation */ '');

FILE_SCHEMA (('AUTOMOTIVE_DESIGN { 1 0 10303 214 3 1 1 }'));
ENDSEC;

DATA;
#10=MECHANICAL_DESIGN_GEOMETRIC_PRESENTATION_REPRESENTATION('',(#16,#17,
#18,#19,#20,#21,#22),#419);
#11=SHAPE_REPRESENTATION_RELATIONSHIP('SRR','None',#426,#12);
#12=ADVANCED_BREP_SHAPE_REPRESENTATION('',(#13),#418);
#13=MANIFOLD_SOLID_BREP('Solid1',#218);
#14=TOROIDAL_SURFACE('',#256,10.410308464356,0.5);
#15=TOROIDAL_SURFACE('',#268,13.1814195754671,0.5);
#16=STYLED_ITEM('',(#436),#212);
#17=STYLED_ITEM('',(#436),#213);
#18=STYLED_ITEM('',(#436),#214);
#19=STYLED_ITEM('',(#436),#215);
#20=STYLED_ITEM('',(#436),#216);
#21=STYLED_ITEM('',(#436),#217);
#22=STYLED_ITEM('',(#435),#13);
#23=FACE_BOUND('',#46,.T.);
#24=FACE_BOUND('',#53,.T.);
#25=PLANE('',#253);
#26=PLANE('',#267);
#27=PLANE('',#272);
#28=CYLINDRICAL_SURFACE('',#246,4.188);
#29=CYLINDRICAL_SURFACE('',#254,7.);
#30=FACE_OUTER_BOUND('',#41,.T.);
#31=FACE_OUTER_BOUND('',#42,.T.);
#32=FACE_OUTER_BOUND('',#43,.T.);
#33=FACE_OUTER_BOUND('',#44,.T.);
#34=FACE_OUTER_BOUND('',#45,.T.);
#35=FACE_OUTER_BOUND('',#47,.T.);
#36=FACE_OUTER_BOUND('',#48,.T.);
#37=FACE_OUTER_BOUND('',#49,.T.);
#38=FACE_OUTER_BOUND('',#50,.T.);
#39=FACE_OUTER_BOUND('',#51,.T.);
#40=FACE_OUTER_BOUND('',#52,.T.);
#41=EDGE_LOOP('',(#143,#144,#145,#146));
#42=EDGE_LOOP('',(#147,#148,#149,#150,#151,#152));
#43=EDGE_LOOP('',(#153,#154,#155,#156,#157,#158));
#44=EDGE_LOOP('',(#159,#160,#161,#162,#163,#164,#165));
#45=EDGE_LOOP('',(#166,#167));
#46=EDGE_LOOP('',(#168,#169));
#47=EDGE_LOOP('',(#170,#171,#172,#173,#174,#175));
#48=EDGE_LOOP('',(#176,#177,#178,#179,#180,#181,#182));
#49=EDGE_LOOP('',(#183,#184,#185,#186,#187,#188,#189,#190));
#50=EDGE_LOOP('',(#191,#192));
#51=EDGE_LOOP('',(#193,#194,#195,#196,#197,#198,#199));
#52=EDGE_LOOP('',(#200,#201));
#53=EDGE_LOOP('',(#202));
#54=LINE('',#357,#60);
#55=LINE('',#365,#61);
#56=LINE('',#370,#62);
#57=LINE('',#377,#63);
#58=LINE('',#387,#64);
#59=LINE('',#407,#65);
#60=VECTOR('',#279,2.094);
#61=VECTOR('',#288,4.344);
#62=VECTOR('',#295,4.188);
#63=VECTOR('',#302,6.75);
#64=VECTOR('',#315,7.);
#65=VECTOR('',#338,12.3);
#66=CIRCLE('',#239,4.188);
#67=CIRCLE('',#240,4.188);
#68=CIRCLE('',#242,4.5);
#69=CIRCLE('',#243,4.5);
#70=CIRCLE('',#244,4.188);
#71=CIRCLE('',#245,4.188);
#72=CIRCLE('',#248,6.5);
#73=CIRCLE('',#249,6.5);
#74=CIRCLE('',#250,7.);
#75=CIRCLE('',#251,7.);
#76=CIRCLE('',#252,7.);
#77=CIRCLE('',#255,7.);
#78=CIRCLE('',#257,10.9062064162461);
#79=CIRCLE('',#258,0.5);
#80=CIRCLE('',#259,10.410308464356);
#81=CIRCLE('',#260,10.410308464356);
#82=CIRCLE('',#261,10.9062064162461);
#83=CIRCLE('',#262,10.9062064162461);
#84=CIRCLE('',#264,13.6773175273572);
#85=CIRCLE('',#265,13.6773175273572);
#86=CIRCLE('',#266,13.6773175273572);
#87=CIRCLE('',#269,13.1814195754671);
#88=CIRCLE('',#270,0.5);
#89=CIRCLE('',#271,13.1814195754671);
#90=VERTEX_POINT('',#353);
#91=VERTEX_POINT('',#354);
#92=VERTEX_POINT('',#356);
#93=VERTEX_POINT('',#360);
#94=VERTEX_POINT('',#361);
#95=VERTEX_POINT('',#364);
#96=VERTEX_POINT('',#366);
#97=VERTEX_POINT('',#372);
#98=VERTEX_POINT('',#373);
#99=VERTEX_POINT('',#376);
#100=VERTEX_POINT('',#378);
#101=VERTEX_POINT('',#380);
#102=VERTEX_POINT('',#385);
#103=VERTEX_POINT('',#389);
#104=VERTEX_POINT('',#390);
#105=VERTEX_POINT('',#392);
#106=VERTEX_POINT('',#394);
#107=VERTEX_POINT('',#397);
#108=VERTEX_POINT('',#401);
#109=VERTEX_POINT('',#402);
#110=VERTEX_POINT('',#404);
#111=VERTEX_POINT('',#410);
#112=VERTEX_POINT('',#411);
#113=EDGE_CURVE('',#90,#91,#66,.T.);
#114=EDGE_CURVE('',#91,#92,#54,.T.);
#115=EDGE_CURVE('',#91,#90,#67,.T.);
#116=EDGE_CURVE('',#93,#94,#68,.T.);
#117=EDGE_CURVE('',#94,#93,#69,.T.);
#118=EDGE_CURVE('',#94,#95,#55,.T.);
#119=EDGE_CURVE('',#96,#95,#70,.T.);
#120=EDGE_CURVE('',#95,#96,#71,.T.);
#121=EDGE_CURVE('',#95,#91,#56,.T.);
#122=EDGE_CURVE('',#97,#98,#72,.T.);
#123=EDGE_CURVE('',#98,#97,#73,.T.);
#124=EDGE_CURVE('',#98,#99,#57,.T.);
#125=EDGE_CURVE('',#100,#99,#74,.T.);
#126=EDGE_CURVE('',#101,#100,#75,.T.);
#127=EDGE_CURVE('',#99,#101,#76,.T.);
#128=EDGE_CURVE('',#102,#102,#77,.T.);
#129=EDGE_CURVE('',#102,#101,#58,.T.);
#130=EDGE_CURVE('',#103,#104,#78,.T.);
#131=EDGE_CURVE('',#104,#105,#79,.T.);
#132=EDGE_CURVE('',#105,#106,#80,.T.);
#133=EDGE_CURVE('',#106,#105,#81,.T.);
#134=EDGE_CURVE('',#104,#107,#82,.T.);
#135=EDGE_CURVE('',#107,#103,#83,.T.);
#136=EDGE_CURVE('',#108,#109,#84,.T.);
#137=EDGE_CURVE('',#110,#108,#85,.T.);
#138=EDGE_CURVE('',#109,#110,#86,.T.);
#139=EDGE_CURVE('',#109,#107,#59,.T.);
#140=EDGE_CURVE('',#111,#112,#87,.T.);
#141=EDGE_CURVE('',#112,#110,#88,.T.);
#142=EDGE_CURVE('',#112,#111,#89,.T.);
#143=ORIENTED_EDGE('',*,*,#113,.T.);
#144=ORIENTED_EDGE('',*,*,#114,.T.);
#145=ORIENTED_EDGE('',*,*,#114,.F.);
#146=ORIENTED_EDGE('',*,*,#115,.T.);
#147=ORIENTED_EDGE('',*,*,#116,.F.);
#148=ORIENTED_EDGE('',*,*,#117,.F.);
#149=ORIENTED_EDGE('',*,*,#118,.T.);
#150=ORIENTED_EDGE('',*,*,#119,.F.);
#151=ORIENTED_EDGE('',*,*,#120,.F.);
#152=ORIENTED_EDGE('',*,*,#118,.F.);
#153=ORIENTED_EDGE('',*,*,#119,.T.);
#154=ORIENTED_EDGE('',*,*,#121,.T.);
#155=ORIENTED_EDGE('',*,*,#113,.F.);
#156=ORIENTED_EDGE('',*,*,#115,.F.);
#157=ORIENTED_EDGE('',*,*,#121,.F.);
#158=ORIENTED_EDGE('',*,*,#120,.T.);
#159=ORIENTED_EDGE('',*,*,#122,.F.);
#160=ORIENTED_EDGE('',*,*,#123,.F.);
#161=ORIENTED_EDGE('',*,*,#124,.T.);
#162=ORIENTED_EDGE('',*,*,#125,.F.);
#163=ORIENTED_EDGE('',*,*,#126,.F.);
#164=ORIENTED_EDGE('',*,*,#127,.F.);
#165=ORIENTED_EDGE('',*,*,#124,.F.);
#166=ORIENTED_EDGE('',*,*,#122,.T.);
#167=ORIENTED_EDGE('',*,*,#123,.T.);
#168=ORIENTED_EDGE('',*,*,#116,.T.);
#169=ORIENTED_EDGE('',*,*,#117,.T.);
#170=ORIENTED_EDGE('',*,*,#128,.F.);
#171=ORIENTED_EDGE('',*,*,#129,.T.);
#172=ORIENTED_EDGE('',*,*,#126,.T.);
#173=ORIENTED_EDGE('',*,*,#125,.T.);
#174=ORIENTED_EDGE('',*,*,#127,.T.);
#175=ORIENTED_EDGE('',*,*,#129,.F.);
#176=ORIENTED_EDGE('',*,*,#130,.T.);
#177=ORIENTED_EDGE('',*,*,#131,.T.);
#178=ORIENTED_EDGE('',*,*,#132,.T.);
#179=ORIENTED_EDGE('',*,*,#133,.T.);
#180=ORIENTED_EDGE('',*,*,#131,.F.);
#181=ORIENTED_EDGE('',*,*,#134,.T.);
#182=ORIENTED_EDGE('',*,*,#135,.T.);
#183=ORIENTED_EDGE('',*,*,#136,.F.);
#184=ORIENTED_EDGE('',*,*,#137,.F.);
#185=ORIENTED_EDGE('',*,*,#138,.F.);
#186=ORIENTED_EDGE('',*,*,#139,.T.);
#187=ORIENTED_EDGE('',*,*,#134,.F.);
#188=ORIENTED_EDGE('',*,*,#130,.F.);
#189=ORIENTED_EDGE('',*,*,#135,.F.);
#190=ORIENTED_EDGE('',*,*,#139,.F.);
#191=ORIENTED_EDGE('',*,*,#133,.F.);
#192=ORIENTED_EDGE('',*,*,#132,.F.);
#193=ORIENTED_EDGE('',*,*,#140,.T.);
#194=ORIENTED_EDGE('',*,*,#141,.T.);
#195=ORIENTED_EDGE('',*,*,#137,.T.);
#196=ORIENTED_EDGE('',*,*,#136,.T.);
#197=ORIENTED_EDGE('',*,*,#138,.T.);
#198=ORIENTED_EDGE('',*,*,#141,.F.);
#199=ORIENTED_EDGE('',*,*,#142,.T.);
#200=ORIENTED_EDGE('',*,*,#140,.F.);
#201=ORIENTED_EDGE('',*,*,#142,.F.);
#202=ORIENTED_EDGE('',*,*,#128,.T.);
#203=CONICAL_SURFACE('',#238,2.094,1.02974425867665);
#204=CONICAL_SURFACE('',#241,4.344,0.785398163397448);
#205=CONICAL_SURFACE('',#247,6.75,0.785398163397449);
#206=CONICAL_SURFACE('',#263,12.3,0.128182203853702);
#207=ADVANCED_FACE('',(#30),#203,.F.);
#208=ADVANCED_FACE('',(#31),#204,.F.);
#209=ADVANCED_FACE('',(#32),#28,.F.);
#210=ADVANCED_FACE('',(#33),#205,.T.);
#211=ADVANCED_FACE('',(#34,#23),#25,.T.);
#212=ADVANCED_FACE('',(#35),#29,.F.);
#213=ADVANCED_FACE('',(#36),#14,.T.);
#214=ADVANCED_FACE('',(#37),#206,.T.);
#215=ADVANCED_FACE('',(#38),#26,.T.);
#216=ADVANCED_FACE('',(#39),#15,.T.);
#217=ADVANCED_FACE('',(#40,#24),#27,.T.);
#218=CLOSED_SHELL('',(#207,#208,#209,#210,#211,#212,#213,#214,#215,#216,
#217));
#219=DERIVED_UNIT_ELEMENT(#221,1.);
#220=DERIVED_UNIT_ELEMENT(#421,3.);
#221=(
MASS_UNIT()
NAMED_UNIT(*)
SI_UNIT($,.GRAM.)
);
#222=DERIVED_UNIT((#219,#220));
#223=MEASURE_REPRESENTATION_ITEM('density measure',
POSITIVE_RATIO_MEASURE(1.),#222);
#224=PROPERTY_DEFINITION_REPRESENTATION(#229,#226);
#225=PROPERTY_DEFINITION_REPRESENTATION(#230,#227);
#226=REPRESENTATION('material name',(#228),#418);
#227=REPRESENTATION('density',(#223),#418);
#228=DESCRIPTIVE_REPRESENTATION_ITEM('Generic','Generic');
#229=PROPERTY_DEFINITION('material property','material name',#428);
#230=PROPERTY_DEFINITION('material property','density of part',#428);
#231=DATE_TIME_ROLE('creation_date');
#232=APPLIED_DATE_AND_TIME_ASSIGNMENT(#233,#231,(#428));
#233=DATE_AND_TIME(#234,#235);
#234=CALENDAR_DATE(2021,14,10);
#235=LOCAL_TIME(0,0,0.,#236);
#236=COORDINATED_UNIVERSAL_TIME_OFFSET(0,0,.BEHIND.);
#237=AXIS2_PLACEMENT_3D('placement',#351,#273,#274);
#238=AXIS2_PLACEMENT_3D('',#352,#275,#276);
#239=AXIS2_PLACEMENT_3D('',#355,#277,#278);
#240=AXIS2_PLACEMENT_3D('',#358,#280,#281);
#241=AXIS2_PLACEMENT_3D('',#359,#282,#283);
#242=AXIS2_PLACEMENT_3D('',#362,#284,#285);
#243=AXIS2_PLACEMENT_3D('',#363,#286,#287);
#244=AXIS2_PLACEMENT_3D('',#367,#289,#290);
#245=AXIS2_PLACEMENT_3D('',#368,#291,#292);
#246=AXIS2_PLACEMENT_3D('',#369,#293,#294);
#247=AXIS2_PLACEMENT_3D('',#371,#296,#297);
#248=AXIS2_PLACEMENT_3D('',#374,#298,#299);
#249=AXIS2_PLACEMENT_3D('',#375,#300,#301);
#250=AXIS2_PLACEMENT_3D('',#379,#303,#304);
#251=AXIS2_PLACEMENT_3D('',#381,#305,#306);
#252=AXIS2_PLACEMENT_3D('',#382,#307,#308);
#253=AXIS2_PLACEMENT_3D('',#383,#309,#310);
#254=AXIS2_PLACEMENT_3D('',#384,#311,#312);
#255=AXIS2_PLACEMENT_3D('',#386,#313,#314);
#256=AXIS2_PLACEMENT_3D('',#388,#316,#317);
#257=AXIS2_PLACEMENT_3D('',#391,#318,#319);
#258=AXIS2_PLACEMENT_3D('',#393,#320,#321);
#259=AXIS2_PLACEMENT_3D('',#395,#322,#323);
#260=AXIS2_PLACEMENT_3D('',#396,#324,#325);
#261=AXIS2_PLACEMENT_3D('',#398,#326,#327);
#262=AXIS2_PLACEMENT_3D('',#399,#328,#329);
#263=AXIS2_PLACEMENT_3D('',#400,#330,#331);
#264=AXIS2_PLACEMENT_3D('',#403,#332,#333);
#265=AXIS2_PLACEMENT_3D('',#405,#334,#335);
#266=AXIS2_PLACEMENT_3D('',#406,#336,#337);
#267=AXIS2_PLACEMENT_3D('',#408,#339,#340);
#268=AXIS2_PLACEMENT_3D('',#409,#341,#342);
#269=AXIS2_PLACEMENT_3D('',#412,#343,#344);
#270=AXIS2_PLACEMENT_3D('',#413,#345,#346);
#271=AXIS2_PLACEMENT_3D('',#414,#347,#348);
#272=AXIS2_PLACEMENT_3D('',#415,#349,#350);
#273=DIRECTION('axis',(0.,0.,1.));
#274=DIRECTION('refdir',(1.,0.,0.));
#275=DIRECTION('center_axis',(-5.52742295536118E-16,1.,-6.03030459317847E-16));
#276=DIRECTION('ref_axis',(0.210868750129491,7.06027024758323E-16,0.97751438363782));
#277=DIRECTION('center_axis',(-5.52742295536118E-16,1.,-6.03030459317847E-16));
#278=DIRECTION('ref_axis',(0.210868750129491,7.06027024758323E-16,0.97751438363782));
#279=DIRECTION('',(0.180749797350924,-0.515038074910053,0.837893365620319));
#280=DIRECTION('center_axis',(-5.52742295536118E-16,1.,-6.03030459317847E-16));
#281=DIRECTION('ref_axis',(0.210868750129491,7.06027024758323E-16,0.97751438363782));
#282=DIRECTION('center_axis',(-5.52742295536118E-16,1.,-6.03030459317847E-16));
#283=DIRECTION('ref_axis',(0.210868750129491,7.06027024758323E-16,0.97751438363782));
#284=DIRECTION('center_axis',(5.52742295536118E-16,-1.,6.03030459317847E-16));
#285=DIRECTION('ref_axis',(0.210868750129491,7.06027024758323E-16,0.97751438363782));
#286=DIRECTION('center_axis',(5.52742295536118E-16,-1.,6.03030459317847E-16));
#287=DIRECTION('ref_axis',(0.210868750129491,7.06027024758323E-16,0.97751438363782));
#288=DIRECTION('',(0.149106723156895,-0.707106781186547,0.691207049377691));
#289=DIRECTION('center_axis',(-5.52742295536118E-16,1.,-6.03030459317847E-16));
#290=DIRECTION('ref_axis',(0.210868750129491,7.06027024758323E-16,0.97751438363782));
#291=DIRECTION('center_axis',(-5.52742295536118E-16,1.,-6.03030459317847E-16));
#292=DIRECTION('ref_axis',(0.210868750129491,7.06027024758323E-16,0.97751438363782));
#293=DIRECTION('center_axis',(-5.52742295536118E-16,1.,-6.03030459317847E-16));
#294=DIRECTION('ref_axis',(0.210868750129491,7.06027024758323E-16,0.97751438363782));
#295=DIRECTION('',(5.52742295536118E-16,-1.,6.03030459317847E-16));
#296=DIRECTION('center_axis',(5.52742295536118E-16,-1.,6.03030459317847E-16));
#297=DIRECTION('ref_axis',(0.210868750129491,7.06027024758323E-16,0.97751438363782));
#298=DIRECTION('center_axis',(-5.52742295536118E-16,1.,-6.03030459317847E-16));
#299=DIRECTION('ref_axis',(0.210868750129491,7.06027024758324E-16,0.97751438363782));
#300=DIRECTION('center_axis',(-5.52742295536118E-16,1.,-6.03030459317847E-16));
#301=DIRECTION('ref_axis',(0.210868750129491,7.06027024758324E-16,0.97751438363782));
#302=DIRECTION('',(-0.149106723156895,-0.707106781186548,-0.691207049377691));
#303=DIRECTION('center_axis',(4.44089209850061E-16,-1.,1.60333667870238E-31));
#304=DIRECTION('ref_axis',(-1.,-4.44089209850061E-16,1.90819582357448E-17));
#305=DIRECTION('center_axis',(4.44089209850061E-16,-1.,1.60333667870238E-31));
#306=DIRECTION('ref_axis',(-1.,-4.44089209850061E-16,1.90819582357448E-17));
#307=DIRECTION('center_axis',(4.44089209850061E-16,-1.,1.60333667870238E-31));
#308=DIRECTION('ref_axis',(-1.,-4.44089209850061E-16,1.90819582357448E-17));
#309=DIRECTION('center_axis',(-5.52742295536118E-16,1.,-6.03030459317847E-16));
#310=DIRECTION('ref_axis',(-0.97751438363782,-4.13153265085175E-16,0.210868750129491));
#311=DIRECTION('center_axis',(4.44089209850061E-16,-1.,1.60333667870238E-31));
#312=DIRECTION('ref_axis',(-1.,-4.44089209850061E-16,1.90819582357448E-17));
#313=DIRECTION('center_axis',(4.44089209850061E-16,-1.,1.60333667870238E-31));
#314=DIRECTION('ref_axis',(-1.,-4.44089209850061E-16,1.90819582357448E-17));
#315=DIRECTION('',(4.44089209850061E-16,-1.,1.60333667870238E-31));
#316=DIRECTION('center_axis',(-4.44089209850061E-16,1.,-1.60333667870238E-31));
#317=DIRECTION('ref_axis',(0.,0.,1.));
#318=DIRECTION('center_axis',(4.44089209850061E-16,-1.,1.60333667870238E-31));
#319=DIRECTION('ref_axis',(1.,4.44089209850061E-16,-8.03142981931125E-17));
#320=DIRECTION('center_axis',(-1.,-4.44089209850061E-16,2.03518173340792E-16));
#321=DIRECTION('ref_axis',(-2.03518173340792E-16,0.,-1.));
#322=DIRECTION('center_axis',(-4.44089209850061E-16,1.,-1.60333667870238E-31));
#323=DIRECTION('ref_axis',(1.,4.44089209850061E-16,-1.90819582357448E-17));
#324=DIRECTION('center_axis',(-4.44089209850061E-16,1.,-1.60333667870238E-31));
#325=DIRECTION('ref_axis',(1.,4.44089209850061E-16,-1.90819582357448E-17));
#326=DIRECTION('center_axis',(4.44089209850061E-16,-1.,1.60333667870238E-31));
#327=DIRECTION('ref_axis',(1.,4.44089209850061E-16,-8.03142981931125E-17));
#328=DIRECTION('center_axis',(4.44089209850061E-16,-1.,1.60333667870238E-31));
#329=DIRECTION('ref_axis',(1.,4.44089209850061E-16,-8.03142981931125E-17));
#330=DIRECTION('center_axis',(-4.44089209850061E-16,1.,-1.60333667870238E-31));
#331=DIRECTION('ref_axis',(-1.,-4.44089209850061E-16,1.90819582357448E-17));
#332=DIRECTION('center_axis',(-4.44089209850061E-16,1.,-1.60333667870238E-31));
#333=DIRECTION('ref_axis',(1.,4.44089209850061E-16,-8.03142981931125E-17));
#334=DIRECTION('center_axis',(-4.44089209850061E-16,1.,-1.60333667870238E-31));
#335=DIRECTION('ref_axis',(1.,4.44089209850061E-16,-8.03142981931125E-17));
#336=DIRECTION('center_axis',(-4.44089209850061E-16,1.,-1.60333667870238E-31));
#337=DIRECTION('ref_axis',(1.,4.44089209850061E-16,-8.03142981931125E-17));
#338=DIRECTION('',(-0.127831472042793,-0.991795903780295,1.80941151174847E-17));
#339=DIRECTION('center_axis',(4.44089209850061E-16,-1.,1.60333667870238E-31));
#340=DIRECTION('ref_axis',(-1.90819582357448E-17,-1.68807759625541E-31,
-1.));
#341=DIRECTION('center_axis',(-4.44089209850061E-16,1.,-1.60333667870238E-31));
#342=DIRECTION('ref_axis',(0.,0.,1.));
#343=DIRECTION('center_axis',(4.44089209850061E-16,-1.,1.60333667870238E-31));
#344=DIRECTION('ref_axis',(1.,4.44089209850061E-16,-1.90819582357448E-17));
#345=DIRECTION('center_axis',(-1.,-4.44089209850061E-16,1.62296466167291E-16));
#346=DIRECTION('ref_axis',(-1.62296466167291E-16,0.,-1.));
#347=DIRECTION('center_axis',(4.44089209850061E-16,-1.,1.60333667870238E-31));
#348=DIRECTION('ref_axis',(1.,4.44089209850061E-16,-1.90819582357448E-17));
#349=DIRECTION('center_axis',(-4.44089209850061E-16,1.,-1.60333667870238E-31));
#350=DIRECTION('ref_axis',(1.90819582357448E-17,1.68807759625541E-31,1.));
#351=CARTESIAN_POINT('',(0.,0.,0.));
#352=CARTESIAN_POINT('Origin',(-10.1583244462621,-1.25277431030038,-0.778469771004511));
#353=CARTESIAN_POINT('',(-9.27520612071975,0.00542782594333158,3.31536046767068));
#354=CARTESIAN_POINT('',(-11.0414427718044,0.00542782594332658,-4.8723000096797));
#355=CARTESIAN_POINT('Origin',(-10.1583244462621,0.00542782594332936,-0.778469771004512));
#356=CARTESIAN_POINT('',(-10.1583244462621,-2.51097644654409,-0.778469771004511));
#357=CARTESIAN_POINT('',(-10.5998836090332,-1.25277431030038,-2.82538489034211));
#358=CARTESIAN_POINT('Origin',(-10.1583244462621,0.00542782594332936,-0.778469771004512));
#359=CARTESIAN_POINT('Origin',(-10.1583244462621,11.3494278259433,-0.778469771004519));
#360=CARTESIAN_POINT('',(-9.20941507067935,11.5054278259433,3.62034495536567));
#361=CARTESIAN_POINT('',(-11.1072338218448,11.5054278259433,-5.17728449737471));
#362=CARTESIAN_POINT('Origin',(-10.1583244462621,11.5054278259433,-0.778469771004519));
#363=CARTESIAN_POINT('Origin',(-10.1583244462621,11.5054278259433,-0.778469771004519));
#364=CARTESIAN_POINT('',(-11.0414427718044,11.1934278259433,-4.87230000967971));
#365=CARTESIAN_POINT('',(-11.0743382968246,11.3494278259433,-5.02479225352721));
#366=CARTESIAN_POINT('',(-9.27520612071975,11.1934278259433,3.31536046767067));
#367=CARTESIAN_POINT('Origin',(-10.1583244462621,11.1934278259433,-0.778469771004519));
#368=CARTESIAN_POINT('Origin',(-10.1583244462621,11.1934278259433,-0.778469771004519));
#369=CARTESIAN_POINT('Origin',(-10.1583244462621,5.75542782594333,-0.778469771004516));
#370=CARTESIAN_POINT('',(-11.0414427718044,5.75542782594333,-4.8723000096797));
#371=CARTESIAN_POINT('Origin',(-10.1583244462621,11.2554278259433,-0.778469771004519));
#372=CARTESIAN_POINT('',(-8.78767757042037,11.5054278259433,5.57537372264131));
#373=CARTESIAN_POINT('',(-11.5289713221038,11.5054278259433,-7.13231326465035));
#374=CARTESIAN_POINT('Origin',(-10.1583244462621,11.5054278259433,-0.778469771004519));
#375=CARTESIAN_POINT('Origin',(-10.1583244462621,11.5054278259433,-0.778469771004519));
#376=CARTESIAN_POINT('',(-11.6344056971685,11.0054278259433,-7.62107045646926));
#377=CARTESIAN_POINT('',(-11.5816885096361,11.2554278259433,-7.3766918605598));
#378=CARTESIAN_POINT('',(-8.68224319535562,11.0054278259433,6.06413091446022));
#379=CARTESIAN_POINT('Origin',(-10.158324446262,11.0054278259433,-0.77846977100452));
#380=CARTESIAN_POINT('',(-3.15832444626204,11.0054278259433,-0.778469771004519));
#381=CARTESIAN_POINT('Origin',(-10.158324446262,11.0054278259433,-0.77846977100452));
#382=CARTESIAN_POINT('Origin',(-10.158324446262,11.0054278259433,-0.77846977100452));
#383=CARTESIAN_POINT('Origin',(-9.47300100834122,11.5054278259433,2.3984519758184));
#384=CARTESIAN_POINT('Origin',(-10.158324446262,11.5054278259434,-0.77846977100452));
#385=CARTESIAN_POINT('',(-3.15832444626205,11.5054278259434,-0.778469771004521));
#386=CARTESIAN_POINT('Origin',(-10.158324446262,11.5054278259434,-0.77846977100452));
#387=CARTESIAN_POINT('',(-3.15832444626204,11.5054278259434,-0.778469771004519));
#388=CARTESIAN_POINT('Origin',(-10.158324446262,-10.4945721740566,-0.77846977100452));
#389=CARTESIAN_POINT('',(-21.0645308625082,-10.558487910078,-0.778469771004521));
#390=CARTESIAN_POINT('',(-10.158324446262,-10.558487910078,-11.6846761872507));
#391=CARTESIAN_POINT('Origin',(-10.158324446262,-10.558487910078,-0.77846977100452));
#392=CARTESIAN_POINT('',(-10.158324446262,-10.9945721740566,-11.1887782353605));
#393=CARTESIAN_POINT('Origin',(-10.158324446262,-10.4945721740566,-11.1887782353605));
#394=CARTESIAN_POINT('',(-20.568632910618,-10.9945721740566,-0.778469771004518));
#395=CARTESIAN_POINT('Origin',(-10.158324446262,-10.9945721740566,-0.77846977100452));
#396=CARTESIAN_POINT('Origin',(-10.158324446262,-10.9945721740566,-0.77846977100452));
#397=CARTESIAN_POINT('',(0.747881969984097,-10.558487910078,-0.778469771004521));
#398=CARTESIAN_POINT('Origin',(-10.158324446262,-10.558487910078,-0.77846977100452));
#399=CARTESIAN_POINT('Origin',(-10.158324446262,-10.558487910078,-0.77846977100452));
#400=CARTESIAN_POINT('Origin',(-10.158324446262,0.255427825943355,-0.77846977100452));
#401=CARTESIAN_POINT('',(-23.8356419736193,10.941512089922,-0.778469771004518));
#402=CARTESIAN_POINT('',(3.5189930810952,10.941512089922,-0.778469771004521));
#403=CARTESIAN_POINT('Origin',(-10.158324446262,10.941512089922,-0.77846977100452));
#404=CARTESIAN_POINT('',(-10.158324446262,10.941512089922,-14.4557872983618));
#405=CARTESIAN_POINT('Origin',(-10.158324446262,10.941512089922,-0.77846977100452));
#406=CARTESIAN_POINT('Origin',(-10.158324446262,10.941512089922,-0.77846977100452));
#407=CARTESIAN_POINT('',(2.14167555373796,0.255427825943361,-0.778469771004521));
#408=CARTESIAN_POINT('Origin',(-21.008324446262,-10.9945721740566,-0.778469771004519));
#409=CARTESIAN_POINT('Origin',(-10.158324446262,11.0054278259434,-0.77846977100452));
#410=CARTESIAN_POINT('',(-23.3397440217291,11.5054278259434,-0.778469771004521));
#411=CARTESIAN_POINT('',(-10.158324446262,11.5054278259434,-13.9598893464716));
#412=CARTESIAN_POINT('Origin',(-10.158324446262,11.5054278259434,-0.77846977100452));
#413=CARTESIAN_POINT('Origin',(-10.158324446262,11.0054278259434,-13.9598893464716));
#414=CARTESIAN_POINT('Origin',(-10.158324446262,11.5054278259434,-0.77846977100452));
#415=CARTESIAN_POINT('Origin',(-10.158324446262,11.5054278259434,-0.77846977100452));
#416=UNCERTAINTY_MEASURE_WITH_UNIT(LENGTH_MEASURE(0.01),#420,
'DISTANCE_ACCURACY_VALUE',
'Maximum model space distance between geometric entities at asserted c
onnectivities');
#417=UNCERTAINTY_MEASURE_WITH_UNIT(LENGTH_MEASURE(0.01),#420,
'DISTANCE_ACCURACY_VALUE',
'Maximum model space distance between geometric entities at asserted c
onnectivities');
#418=(
GEOMETRIC_REPRESENTATION_CONTEXT(3)
GLOBAL_UNCERTAINTY_ASSIGNED_CONTEXT((#416))
GLOBAL_UNIT_ASSIGNED_CONTEXT((#420,#422,#423))
REPRESENTATION_CONTEXT('','3D')
);
#419=(
GEOMETRIC_REPRESENTATION_CONTEXT(3)
GLOBAL_UNCERTAINTY_ASSIGNED_CONTEXT((#417))
GLOBAL_UNIT_ASSIGNED_CONTEXT((#420,#422,#423))
REPRESENTATION_CONTEXT('','3D')
);
#420=(
LENGTH_UNIT()
NAMED_UNIT(*)
SI_UNIT(.MILLI.,.METRE.)
);
#421=(
LENGTH_UNIT()
NAMED_UNIT(*)
SI_UNIT(.CENTI.,.METRE.)
);
#422=(
NAMED_UNIT(*)
PLANE_ANGLE_UNIT()
SI_UNIT($,.RADIAN.)
);
#423=(
NAMED_UNIT(*)
SI_UNIT($,.STERADIAN.)
SOLID_ANGLE_UNIT()
);
#424=SHAPE_DEFINITION_REPRESENTATION(#425,#426);
#425=PRODUCT_DEFINITION_SHAPE('',$,#428);
#426=SHAPE_REPRESENTATION('',(#237),#418);
#427=PRODUCT_DEFINITION_CONTEXT('part definition',#432,'design');
#428=PRODUCT_DEFINITION('NM10 Simplified','NM10 Simplified',#429,#427);
#429=PRODUCT_DEFINITION_FORMATION('',$,#434);
#430=PRODUCT_RELATED_PRODUCT_CATEGORY('NM10 Simplified',
'NM10 Simplified',(#434));
#431=APPLICATION_PROTOCOL_DEFINITION('international standard',
'automotive_design',2009,#432);
#432=APPLICATION_CONTEXT(
'Core Data for Automotive Mechanical Design Process');
#433=PRODUCT_CONTEXT('part definition',#432,'mechanical');
#434=PRODUCT('NM10 Simplified','NM10 Simplified',$,(#433));
#435=PRESENTATION_STYLE_ASSIGNMENT((#437));
#436=PRESENTATION_STYLE_ASSIGNMENT((#438));
#437=SURFACE_STYLE_USAGE(.BOTH.,#443);
#438=SURFACE_STYLE_USAGE(.BOTH.,#444);
#439=SURFACE_STYLE_RENDERING_WITH_PROPERTIES($,#451,(#441));
#440=SURFACE_STYLE_RENDERING_WITH_PROPERTIES($,#452,(#442));
#441=SURFACE_STYLE_TRANSPARENT(0.);
#442=SURFACE_STYLE_TRANSPARENT(0.);
#443=SURFACE_SIDE_STYLE('',(#445,#439));
#444=SURFACE_SIDE_STYLE('',(#446,#440));
#445=SURFACE_STYLE_FILL_AREA(#447);
#446=SURFACE_STYLE_FILL_AREA(#448);
#447=FILL_AREA_STYLE('',(#449));
#448=FILL_AREA_STYLE('',(#450));
#449=FILL_AREA_STYLE_COLOUR('',#451);
#450=FILL_AREA_STYLE_COLOUR('',#452);
#451=COLOUR_RGB('',0.749019607843137,0.749019607843137,0.749019607843137);
#452=COLOUR_RGB('',0.250980392156863,0.250980392156863,0.250980392156863);
ENDSEC;
END-ISO-10303-21;
