ISO-10303-21;
HEADER;
/****************************************************************
 * Generated by software with PDE/Lib inside                    *
 * PDE/Lib Version 3.2.6, created Mon Nov 19, 2001 at 18:43:38  *
 * International Technegroup Inc. (www.iti-oh.com)              *
 ****************************************************************/
FILE_DESCRIPTION((''),'2;1');
FILE_NAME('C:\\Documents and Settings\\Administrator\\My Documents\\TOGGLE CLAMP STEP FILES\\Vertical\\Ball Ended\\Accessories\\Handles\\M18H.stp','2004-02-06T10:15:36',('Administrator'),(''),'Autodesk Inventor (R) 6.0','Autodesk Inventor (R) 6.0','');
FILE_SCHEMA(('AUTOMOTIVE_DESIGN { 1 0 10303 214 1 1 1 1 }'));
ENDSEC;
DATA;
#5=APPLICATION_CONTEXT('automotive design');
#6=APPLICATION_PROTOCOL_DEFINITION('Draft International Standard','automotive_design',1998,#5);
#7=PRODUCT_CONTEXT('None',#5,'mechanical');
#8=PRODUCT('M18H','M18H','None',(#7));
#9=PRODUCT_RELATED_PRODUCT_CATEGORY('part','description',(#8));
#10=PRODUCT_DEFINITION_FORMATION('None','None',#8);
#11=PRODUCT_DEFINITION_CONTEXT('part definition',#5,'design');
#12=PRODUCT_DEFINITION('None','None',#10,#11);
#18=(NAMED_UNIT(*)PLANE_ANGLE_UNIT()SI_UNIT($,.RADIAN.));
#19=DIMENSIONAL_EXPONENTS(0.0,0.0,0.0,0.0,0.0,0.0,0.0);
#20=PLANE_ANGLE_MEASURE_WITH_UNIT(PLANE_ANGLE_MEASURE(0.017453292500000),#18);
#24=(CONVERSION_BASED_UNIT('DEGREE',#20)NAMED_UNIT(#19)PLANE_ANGLE_UNIT());
#28=(NAMED_UNIT(*)SI_UNIT($,.STERADIAN.)SOLID_ANGLE_UNIT());
#32=(LENGTH_UNIT()NAMED_UNIT(*)SI_UNIT(.MILLI.,.METRE.));
#34=UNCERTAINTY_MEASURE_WITH_UNIT(LENGTH_MEASURE(0.000001000000000),#32,'DISTANCE_ACCURACY_VALUE','');
#36=(GEOMETRIC_REPRESENTATION_CONTEXT(3)GLOBAL_UNCERTAINTY_ASSIGNED_CONTEXT((#34))GLOBAL_UNIT_ASSIGNED_CONTEXT((#24,#28,#32))REPRESENTATION_CONTEXT('None','None'));
#37=AXIS2_PLACEMENT_3D('',#38,#39,#40);
#38=CARTESIAN_POINT('',(0.0,0.0,0.0));
#39=DIRECTION('',(0.0,0.0,1.0));
#40=DIRECTION('',(1.0,0.0,0.0));
#41=SHAPE_REPRESENTATION('',(#37),#36);
#42=PRODUCT_DEFINITION_SHAPE('','',#12);
#43=SHAPE_DEFINITION_REPRESENTATION(#42,#41);
#44=CARTESIAN_POINT('',(-21.113445063536421,4.831932525642229,0.0));
#45=DIRECTION('',(0.0,0.0,1.0));
#46=DIRECTION('',(-1.0,0.0,0.0));
#47=AXIS2_PLACEMENT_3D('',#44,#45,#46);
#48=CYLINDRICAL_SURFACE('',#47,11.0);
#49=CARTESIAN_POINT('',(-32.113445063536417,4.831932525642231,0.0));
#50=VERTEX_POINT('',#49);
#51=CARTESIAN_POINT('',(-32.113445063536417,4.831932525642231,75.0));
#52=VERTEX_POINT('',#51);
#53=CARTESIAN_POINT('',(-32.113445063536417,4.831932525642231,0.0));
#54=DIRECTION('',(0.0,0.0,1.0));
#55=VECTOR('',#54,75.0);
#56=LINE('',#53,#55);
#57=EDGE_CURVE('',#50,#52,#56,.T.);
#58=ORIENTED_EDGE('',*,*,#57,.F.);
#59=CARTESIAN_POINT('',(-10.113445063536414,4.831932525642230,0.0));
#60=VERTEX_POINT('',#59);
#61=CARTESIAN_POINT('',(-21.113445063536421,4.831932525642229,0.0));
#62=DIRECTION('',(0.0,0.0,-1.0));
#63=DIRECTION('',(-1.0,0.0,0.0));
#64=AXIS2_PLACEMENT_3D('',#61,#62,#63);
#65=CIRCLE('',#64,11.0);
#66=EDGE_CURVE('',#60,#50,#65,.T.);
#67=ORIENTED_EDGE('',*,*,#66,.F.);
#68=CARTESIAN_POINT('',(-10.113445063536414,4.831932525642230,75.0));
#69=VERTEX_POINT('',#68);
#70=CARTESIAN_POINT('',(-10.113445063536414,4.831932525642230,75.0));
#71=DIRECTION('',(0.0,0.0,-1.0));
#72=VECTOR('',#71,75.0);
#73=LINE('',#70,#72);
#74=EDGE_CURVE('',#69,#60,#73,.T.);
#75=ORIENTED_EDGE('',*,*,#74,.F.);
#76=CARTESIAN_POINT('',(-21.113445063536421,4.831932525642229,75.0));
#77=DIRECTION('',(0.0,0.0,-1.0));
#78=DIRECTION('',(-1.0,0.0,0.0));
#79=AXIS2_PLACEMENT_3D('',#76,#77,#78);
#80=CIRCLE('',#79,11.0);
#81=EDGE_CURVE('',#69,#52,#80,.T.);
#82=ORIENTED_EDGE('',*,*,#81,.T.);
#83=EDGE_LOOP('',(#58,#67,#75,#82));
#84=FACE_OUTER_BOUND('',#83,.T.);
#85=ADVANCED_FACE('',(#84),#48,.T.);
#86=CARTESIAN_POINT('',(-21.113445063536421,4.831932525642229,0.0));
#87=DIRECTION('',(0.0,0.0,1.0));
#88=DIRECTION('',(-1.0,0.0,0.0));
#89=AXIS2_PLACEMENT_3D('',#86,#87,#88);
#90=CYLINDRICAL_SURFACE('',#89,7.500000000000000);
#91=CARTESIAN_POINT('',(-28.613445063536421,4.831932525642230,75.0));
#92=VERTEX_POINT('',#91);
#93=CARTESIAN_POINT('',(-28.613445063536421,4.831932525642230,0.0));
#94=VERTEX_POINT('',#93);
#95=CARTESIAN_POINT('',(-28.613445063536421,4.831932525642230,75.0));
#96=DIRECTION('',(0.0,0.0,-1.0));
#97=VECTOR('',#96,75.0);
#98=LINE('',#95,#97);
#99=EDGE_CURVE('',#92,#94,#98,.T.);
#100=ORIENTED_EDGE('',*,*,#99,.F.);
#101=CARTESIAN_POINT('',(-13.613445063536416,4.831932525642230,75.0));
#102=VERTEX_POINT('',#101);
#103=CARTESIAN_POINT('',(-21.113445063536421,4.831932525642229,75.0));
#104=DIRECTION('',(0.0,0.0,-1.0));
#105=DIRECTION('',(-1.0,0.0,0.0));
#106=AXIS2_PLACEMENT_3D('',#103,#104,#105);
#107=CIRCLE('',#106,7.500000000000000);
#108=EDGE_CURVE('',#102,#92,#107,.T.);
#109=ORIENTED_EDGE('',*,*,#108,.F.);
#110=CARTESIAN_POINT('',(-13.613445063536416,4.831932525642230,0.0));
#111=VERTEX_POINT('',#110);
#112=CARTESIAN_POINT('',(-13.613445063536416,4.831932525642230,0.0));
#113=DIRECTION('',(0.0,0.0,1.0));
#114=VECTOR('',#113,75.0);
#115=LINE('',#112,#114);
#116=EDGE_CURVE('',#111,#102,#115,.T.);
#117=ORIENTED_EDGE('',*,*,#116,.F.);
#118=CARTESIAN_POINT('',(-21.113445063536421,4.831932525642229,0.0));
#119=DIRECTION('',(0.0,0.0,1.0));
#120=DIRECTION('',(-1.0,0.0,0.0));
#121=AXIS2_PLACEMENT_3D('',#118,#119,#120);
#122=CIRCLE('',#121,7.500000000000000);
#123=EDGE_CURVE('',#94,#111,#122,.T.);
#124=ORIENTED_EDGE('',*,*,#123,.F.);
#125=EDGE_LOOP('',(#100,#109,#117,#124));
#126=FACE_OUTER_BOUND('',#125,.T.);
#127=ADVANCED_FACE('',(#126),#90,.F.);
#128=CARTESIAN_POINT('',(-21.113445063536421,4.831932525642229,0.0));
#129=DIRECTION('',(0.0,0.0,1.0));
#130=DIRECTION('',(-1.0,0.0,0.0));
#131=AXIS2_PLACEMENT_3D('',#128,#129,#130);
#132=CYLINDRICAL_SURFACE('',#131,7.500000000000000);
#133=ORIENTED_EDGE('',*,*,#99,.T.);
#134=CARTESIAN_POINT('',(-21.113445063536421,4.831932525642229,0.0));
#135=DIRECTION('',(0.0,0.0,1.0));
#136=DIRECTION('',(-1.0,0.0,0.0));
#137=AXIS2_PLACEMENT_3D('',#134,#135,#136);
#138=CIRCLE('',#137,7.500000000000000);
#139=EDGE_CURVE('',#111,#94,#138,.T.);
#140=ORIENTED_EDGE('',*,*,#139,.F.);
#141=ORIENTED_EDGE('',*,*,#116,.T.);
#142=CARTESIAN_POINT('',(-21.113445063536421,4.831932525642229,75.0));
#143=DIRECTION('',(0.0,0.0,-1.0));
#144=DIRECTION('',(-1.0,0.0,0.0));
#145=AXIS2_PLACEMENT_3D('',#142,#143,#144);
#146=CIRCLE('',#145,7.500000000000000);
#147=EDGE_CURVE('',#92,#102,#146,.T.);
#148=ORIENTED_EDGE('',*,*,#147,.F.);
#149=EDGE_LOOP('',(#133,#140,#141,#148));
#150=FACE_OUTER_BOUND('',#149,.T.);
#151=ADVANCED_FACE('',(#150),#132,.F.);
#152=CARTESIAN_POINT('',(-21.113445063536421,4.831932525642229,0.0));
#153=DIRECTION('',(0.0,0.0,1.0));
#154=DIRECTION('',(-1.0,0.0,0.0));
#155=AXIS2_PLACEMENT_3D('',#152,#153,#154);
#156=CYLINDRICAL_SURFACE('',#155,11.0);
#157=ORIENTED_EDGE('',*,*,#57,.T.);
#158=CARTESIAN_POINT('',(-21.113445063536421,4.831932525642229,75.0));
#159=DIRECTION('',(0.0,0.0,-1.0));
#160=DIRECTION('',(-1.0,0.0,0.0));
#161=AXIS2_PLACEMENT_3D('',#158,#159,#160);
#162=CIRCLE('',#161,11.0);
#163=EDGE_CURVE('',#52,#69,#162,.T.);
#164=ORIENTED_EDGE('',*,*,#163,.T.);
#165=ORIENTED_EDGE('',*,*,#74,.T.);
#166=CARTESIAN_POINT('',(-21.113445063536421,4.831932525642229,0.0));
#167=DIRECTION('',(0.0,0.0,-1.0));
#168=DIRECTION('',(-1.0,0.0,0.0));
#169=AXIS2_PLACEMENT_3D('',#166,#167,#168);
#170=CIRCLE('',#169,11.0);
#171=EDGE_CURVE('',#50,#60,#170,.T.);
#172=ORIENTED_EDGE('',*,*,#171,.F.);
#173=EDGE_LOOP('',(#157,#164,#165,#172));
#174=FACE_OUTER_BOUND('',#173,.T.);
#175=ADVANCED_FACE('',(#174),#156,.T.);
#176=CARTESIAN_POINT('',(-21.113445063536421,4.831932525642229,75.0));
#177=DIRECTION('',(0.0,0.0,-1.0));
#178=DIRECTION('',(-1.0,0.0,0.0));
#179=AXIS2_PLACEMENT_3D('',#176,#177,#178);
#180=PLANE('',#179);
#181=ORIENTED_EDGE('',*,*,#81,.F.);
#182=ORIENTED_EDGE('',*,*,#163,.F.);
#183=EDGE_LOOP('',(#181,#182));
#184=FACE_OUTER_BOUND('',#183,.T.);
#185=ORIENTED_EDGE('',*,*,#108,.T.);
#186=ORIENTED_EDGE('',*,*,#147,.T.);
#187=EDGE_LOOP('',(#185,#186));
#188=FACE_BOUND('',#187,.T.);
#189=ADVANCED_FACE('',(#184,#188),#180,.F.);
#190=CARTESIAN_POINT('',(-21.113445063536421,4.831932525642229,0.0));
#191=DIRECTION('',(0.0,0.0,-1.0));
#192=DIRECTION('',(-1.0,0.0,0.0));
#193=AXIS2_PLACEMENT_3D('',#190,#191,#192);
#194=PLANE('',#193);
#195=ORIENTED_EDGE('',*,*,#66,.T.);
#196=ORIENTED_EDGE('',*,*,#171,.T.);
#197=EDGE_LOOP('',(#195,#196));
#198=FACE_OUTER_BOUND('',#197,.T.);
#199=ORIENTED_EDGE('',*,*,#139,.T.);
#200=ORIENTED_EDGE('',*,*,#123,.T.);
#201=EDGE_LOOP('',(#199,#200));
#202=FACE_BOUND('',#201,.T.);
#203=ADVANCED_FACE('',(#198,#202),#194,.T.);
#204=CLOSED_SHELL('',(#85,#127,#151,#175,#189,#203));
#205=MANIFOLD_SOLID_BREP('',#204);
#206=COLOUR_RGB('Default',0.752941191196442,0.752941191196442,0.752941191196442);
#207=FILL_AREA_STYLE_COLOUR('Default',#206);
#208=FILL_AREA_STYLE('Default',(#207));
#209=SURFACE_STYLE_FILL_AREA(#208);
#210=SURFACE_SIDE_STYLE('Default',(#209));
#211=SURFACE_STYLE_USAGE(.BOTH.,#210);
#212=PRESENTATION_STYLE_ASSIGNMENT((#211));
#213=STYLED_ITEM('',(#212),#205);
#214=MECHANICAL_DESIGN_GEOMETRIC_PRESENTATION_REPRESENTATION('',(#213),#36);
#215=ADVANCED_BREP_SHAPE_REPRESENTATION('ABSR',(#205),#36);
#216=SHAPE_REPRESENTATION_RELATIONSHIP('SRR','None',#215,#41);
ENDSEC;
END-ISO-10303-21;
